Oops, an error
Loading. Please wait.

I Saw A Ghost Lean Tab

4,793 views 1 this week
no commentswrite comment
1 2 3 4 5
excellent!
x 3
add to favorites
launch autoscroll
font size
0
reset
how to read this tab
guitar tuner
Tab Pro tools
  • play this tab
  • loop segment
  • change instrument
  • show fretboard
  • metronome
×
Best way to learn
"I Saw A Ghost Lean"
Autoscroll
slow
fast
+/-
esc
set tempo
stop
Contributor
NKR
From the album "Good Bad Not Evil"
Standard Tuning


Verse

Guitar 1
e|---------------------------------------------------------------------|
B|---------------------------------------------------------------------|
G|---------------------------------------------------------------------|
D|---------------------------------------------------------------------|
A|--------------0--5--0-5-0---7--5-------------------------------------|
E|--0--7--0-7-0-------------0------7-5-3b(4)r(3)-----------------------|

Guitar 2

    E           D           E
e|--0-----------2-----------0------------------------------------------|
B|--0-----------3-----------0------------------------------------------|
G|--1-----------2-----------1------------------------------------------|
D|--2-----------0-----------2------------------------------------------|
A|--2-----------------------2------------------------------------------|
E|--0-----------------------0------------------------------------------|
(listen to song to get rhythm)


Chorus

Guitar 1
e|---------------------------------------------------------------------|
B|---------------------------------------------------------------------|
G|---------------------------------------------------------------------|
D|---------------------------------------------------------------------|
A|-----------------5--0--5--0-5-0----7--5------------------------------|
E|--5--0--5--0-5-0-----------------0------7-5-3b(4)r(3)----------------|


Guitar 2

    A              D               E
e|--0--------------2---------------0-----------------------------------|
B|--2--------------3---------------0-----------------------------------|
G|--2--------------2---------------1-----------------------------------|
D|--2--------------0---------------2-----------------------------------|
A|--0------------------------------2-----------------------------------|
E|---------------------------------0-----------------------------------|
*In this part, the rhythym guitar kind of switches between these chords...again, listen 
the song. The guitarist is probably doing this in power chords, as in:

e|----------------------------------------0----------------------------|
B|---------------------3-----3----3-------0----------------------------|
G|--2-----2----2-------2--2--2--2-2-2-----1----------------------------|
D|--2--2--2--2-2-2-----0--2--0--2-0-2-----2----------------------------|
A|--0--2--0--2-0-2--------0-----0---0-----2----------------------------|
E|-----0-----0---0------------------------0----------------------------|
comments
We did not receive enough feedback on this tab! Please rate:
print report bad tab
1 2 3 4 5
I want to post or [tab]
guest
You may want to rate the tab now too:
select rating
Please do not post tabs as comments. Select "correction" instead!