Oops, an error
Loading. Please wait.

Punk Slime chords

64 views 1 this week
no commentswrite comment
1 2 3 4 5
2 more votes to show rating
add to favorites
×
Save as Personal and add changes to this tab that will be seen only by you. Learn more ›
×
You can save this tab as Personal to edit and correct it or add notes. All changes will be seen only by you. Learn more »
launch autoscroll
font size
0
reset
transpose
0
reset
display chords
guitar tuner
edit
Autoscroll
slow
fast
+/-
esc
set tempo
stop
Author
Difficulty
Strumming
There is no strumming pattern for this song yet. and get +5 IQ
Standard Tuning
listen to the song for the strumming pattern.

[Intro]

(Let the chords ring)

e|-----------------------------------|
B|-----------------------------------|
G|-1---1-1--1-1---1-----------11-11--|
D|-2---2-2--2-2---2-----------22-22--|
A|-2---2-2--2-2---2-----------22-22--|
E|-------------------3--5--3---------|

e|------------------------------|
B|------------------------------|
G|--1-----------11--11----------|
D|--2-----------22--22----------| x2
A|--2-----------22--22----------|
E|-----3--5--3------------------|

e|---------------------------|--------------------------|
B|---------------------------|--------------------------|
G|---------------------------|--------------------------|
D|-7------------7-7--7-7-----|---7------------7-7--7-7--|
A|-7------------7-7--7-7-----|---7------------7-7--7-7--|
E|-5--8--10--8--5-5--5-5-----|---5--8--10--8--5-5--5-5--|

e|------------------------------|
B|------------------------------|
G|--1-----------11--11----------|
D|--2-----------22--22----------| x2
A|--2-----------22--22----------|
E|-----3--5--3------------------|

e|---------------------------------------------------|
B|---------------------------------------------------|
G|--1------------------------------------------------|
D|--2--------4-4-4-4-4-4-4-4-5-5-5-5-8-8-8-8---1-----| 
A|--2--------4-4-4-4-4-4-4-4-5-5-5-5-8-8-8-8---2-----|
E|-----3--5--2-2-2-2-2-2-2-2-3-3-3-3-6-6-6-6---2-----|

e|--------------------------|
B|--------------------------|
G|--------------------------|
D|--------------------------| repeat as many times a necessary and fade out.
A|--------------------------|
E|--0---3--5--3---0-0--0-0--|

E|-----------------------------|
A|-----------------------------|
D|-----------------------------| 
G|-----------------------------| x2
B|-----------------------------|
e|-0-0-0-5-5-5-3-3-3-10-10-10--|

    E  A  G  D (x2)


[Verse]


E                 A           G               D           E A G D
I killed all my children, I stripped them and fed them to lions
E                 A          G           D         E A G D
They say that I'm guilty but I'll never pay for my crimes
E            A         G                D         E A G D     
I'll never regret it cause I just don't feel I'll die
E                  A          G           D        E A G D        
I walk through my castle and leave all my troubles behind


[Chorus]

E     A  G   D            E A G D
Punk Slime,  all of the time
E     A  G   D            E A G D
Punk Slime,  all of the time
E     A  G   D            E A G D
Punk Slime,  all of the time
E     A  G   D            E A G D
Punk Slime,  all of the time
E     A  G   D               
          ,  All of the time

[Solo]

E A G D (x4)


[Verse 2]

E              A          G            D          E A G D
I drank all my money, I'm guilted and haunted and sad
E           A          G            D         E A G D
I live and imagine my poor boys had never had died
E          A              G             D           E A G D    
disaster, destruction, my soul might be breaking my mind
E               A            G                D           E A G D
I killed all my children, I stripped them and fed them to lions


[Chorus]


E     A  G   D            E A G D
Punk Slime,  all of the time
E     A  G   D            E A G D
Punk Slime,  all of the time
E     A  G   D            E A G D
Punk Slime,  all of the time
E     A  G   D            E A G D
Punk Slime,  all of the time
E     A  G   D            E
          ,  All of the time

            
            
Suggest correction
Creating personal tab
Creating personal tab
You can edit any tab online and save it as your Personal.

You can edit, replace or remove any tab part or add personal notes – all changes will be seen only by you.

Personal tabs can be accessed anytime from any device, even offline.
Learn more »
Give kudos to tab author, rate the tab!
1 2 3 4 5
comments
print report bad tab
guest
You may want to rate the tab now too:
select rating
Wanna post a correction for this tab? Suggest correction