Oops, an error
Loading. Please wait.

Code tab

211 views 1 this week
no commentswrite comment
1 2 3 4 5
3 more votes to show rating
add to favorites
×
Save as Personal and add changes to this tab that will be seen only by you. Learn more ›
×
You can save this tab as Personal to edit and correct it or add notes. All changes will be seen only by you. Learn more »
launch autoscroll
font size
0
reset
how to read this tab
guitar tuner
edit
Autoscroll
slow
fast
+/-
esc
set tempo
stop
Author
Code –by - Black Map 
From the Album – And We Explode

Tabbed by: James Pergande
Tuning: CGCFAD


[Intro]

Reverb W/ Lighter Distortion – Volume Swells – (0:00 – 0:23)

D|---------------------------------------------------------------|
A|---------------------------------------------------------------|
F|-0~~----------------------0~~----------------------------------|
C|----3~~~~~--------------------3~~~~~~--------------------------|
G|-----------1~~~~~~--------------------1~~~~~-------------------|
C|------------------------------------------------0~~~~~~~~~~~~~~|


[Riff 1] x2

(0.23 – 0.36)
D|---------------------------------------------------------------|
A|---------------------------------------------------------------|
F|---------------------------------------------------------------|
C|-----------------------------------5p3--------8----------------|
G|------3h55-------3h55-------3h55----------5---8----------------|
C|-0-0--------0-0--------0-0--------------------8----------------|

D|---------------------------------------------------------------|
A|---------------------------------------------------------------|
F|---------------------------------------------------------------|
C|------------------------7—6-5----------------------------------|
G|------3h55-------3h55------------5-4-3—---5-4-3----5-4-3-------|
C|-0-0--------0-0------------------------------------------------|


[Verse] 

Guitar on own – (0:36 – 0:44)

D|---------------------------------------------------------------|
A|---------------------------------------------------------------|
F|---------------------------------------------------------------|
C|-0---0-0-0---0-0-0---0-0-0---0-0-0---0-0-0---0-0—10\3~~~-------|
G|-0---0-0-0---0-0-0---0-0-0---0-0-0---0-0-0---0-0—10\3~~~-------|
C|-0---0-0-0---0-0-0---0-0-0---0-0-0---0-0-0---0-0—10\3~~~-------|

Verse (Part a) – (0:44 – 1:10)

D|---------------------------------------------------------------|
A|---------------------------------------------------------------|
F|---------------------------------------------------------------|
C|-0---0-0-0---0-0-0---0-0-0---0-0-0---0-0-0---0-0—10\3~~~-------|
G|-0---0-0-0---0-0-0---0-0-0---0-0-0---0-0-0---0-0—10\3~~~-------|
C|-0---0-0-0---0-0-0---0-0-0---0-0-0---0-0-0---0-0—10\3~~~-------|

Verse (Part b)

D|---------------------------------------------------------------|
A|---------------------------------------------------------------|
F|---------------------------------------------------------------|
C|-0---0-0-0---0-0-0---0-0-0---0-0-0---0-0-0---0-0—1/6~~~--------|
G|-0---0-0-0---0-0-0---0-0-0---0-0-0---0-0-0---0-0—1/6~~~--------|
C|-0---0-0-0---0-0-0---0-0-0---0-0-0---0-0-0---0-0—1/6~~~--------|
Play Verse (a) & (b) again.


[Chorus] x2

(1:10 – 1:37)

The Chorus has an overdubbed Guitar playing higher notes throughout.
See Chorus / Overdub

D|----------------------------------------------------------------|
A|----------------------------------------------------------------|
F|----------------------------------------------------------------|
C|-0-0-0-0-0-0-0-0-3-3-3-3-3-3-3-3-8-8-8-8-8-8-8-8-8-8-8-8-8-8-8-8|
G|-0-0-0-0-0-0-0-0-3-3-3-3-3-3-3-3-8-8-8-8-8-8-8-8-8-8-8-8-8-8-8-8|
C|-0-0-0-0-0-0-0-0-3-3-3-3-3-3-3-3-8-8-8-8-8-8-8-8-8-8-8-8-8-8-8-8|

D|----------------------------------------------------------------|
A|----------------------------------------------------------------|
F|----------------------------------------------------------------|
C|-0-0-0-0-0-0-0-0-3-3-3-3-3-3-3-3-8-8-8-8-8-8-8-8-8-8-8-8-765-765|
G|-0-0-0-0-0-0-0-0-3-3-3-3-3-3-3-3-8-8-8-8-8-8-8-8-8-8-8-8-765-765|
C|-0-0-0-0-0-0-0-0-3-3-3-3-3-3-3-3-8-8-8-8-8-8-8-8-8-8-8-8-765-765|


[Chorus / Overdub]

(1:10 – 1:37)

D|---------------------------------------------------------------|
A|---------------------------------------------------------------|
F|-9~~~~~~~~~~~~------7~~~~~~~-------12~~~~~~~~~~~~~12h14~~~~~~~-|
C|---------------------------------------------------------------|
G|---------------------------------------------------------------|
C|---------------------------------------------------------------|

(Chorus Overdub Cont)

D|---------------------------------------------------------------|
A|---------------------------------------------------------------|
F|-9~~~~~~~~~~~~------7~~~~~~~-------5~~~~~~~~~~~~~---3~~~~~~~~~-|
C|---------------------------------------------------------------|
G|---------------------------------------------------------------|
C|---------------------------------------------------------------|


[Riff 1] x2

(1:37 – 1:51)
D|---------------------------------------------------------------|
A|---------------------------------------------------------------|
F|---------------------------------------------------------------|
C|-----------------------------------5p3--------8----------------|
G|------3h55-------3h55-------3h55--------5-----8----------------|
C|-0-0--------0-0--------0-0--------------------8----------------|

D|---------------------------------------------------------------|
A|---------------------------------------------------------------|
F|---------------------------------------------------------------|
C|------------------------7—6-5----------------------------------|
G|------3h55-------3h55------------5-4-3—---5-4-3----5-4-3-------|
C|-0-0--------0-0------------------------------------------------|


[Verse]x2

(Part a) – (1:51 – 2:18)
D|---------------------------------------------------------------|
A|---------------------------------------------------------------|
F|---------------------------------------------------------------|
C|-0---0-0-0---0-0-0---0-0-0---0-0-0---0-0-0---0-0—10\3~~~-------|
G|-0---0-0-0---0-0-0---0-0-0---0-0-0---0-0-0---0-0—10\3~~~-------|
C|-0---0-0-0---0-0-0---0-0-0---0-0-0---0-0-0---0-0—10\3~~~-------|

(Part b)
D|---------------------------------------------------------------|
A|---------------------------------------------------------------|
F|---------------------------------------------------------------|
C|-0---0-0-0---0-0-0---0-0-0---0-0-0---0-0-0---0-0—1/6~~~--------|
G|-0---0-0-0---0-0-0---0-0-0---0-0-0---0-0-0---0-0—1/6~~~--------|
C|-0---0-0-0---0-0-0---0-0-0---0-0-0---0-0-0---0-0—1/6~~~--------|


[Chorus]

(with Overdub) 
(2:18 – 2:44)
D|----------------------------------------------------------------|
A|----------------------------------------------------------------|
F|----------------------------------------------------------------|
C|-0-0-0-0-0-0-0-0-3-3-3-3-3-3-3-3-8-8-8-8-8-8-8-8-8-8-8-8-8-8-8-8|
G|-0-0-0-0-0-0-0-0-3-3-3-3-3-3-3-3-8-8-8-8-8-8-8-8-8-8-8-8-8-8-8-8|
C|-0-0-0-0-0-0-0-0-3-3-3-3-3-3-3-3-8-8-8-8-8-8-8-8-8-8-8-8-8-8-8-8|

D|----------------------------------------------------------------|
A|----------------------------------------------------------------|
F|----------------------------------------------------------------|
C|-0-0-0-0-0-0-0-0-3-3-3-3-3-3-3-3-8-8-8-8-8-8-8-8-8-8-8-8-765-765|
G|-0-0-0-0-0-0-0-0-3-3-3-3-3-3-3-3-8-8-8-8-8-8-8-8-8-8-8-8-765-765|
C|-0-0-0-0-0-0-0-0-3-3-3-3-3-3-3-3-8-8-8-8-8-8-8-8-8-8-8-8-765-765|

D|----------------------------------------------------------------|
A|----------------------------------------------------------------|
F|----------------------------------------------------------------|
C|-0-0-0-0-0-0-0-0-3-3-3-3-3-3-3-3-8-8-8-8-8-8-8-8-8-8-8-8-8-8-8-8|
G|-0-0-0-0-0-0-0-0-3-3-3-3-3-3-3-3-8-8-8-8-8-8-8-8-8-8-8-8-8-8-8-8|
C|-0-0-0-0-0-0-0-0-3-3-3-3-3-3-3-3-8-8-8-8-8-8-8-8-8-8-8-8-8-8-8-8|

D|----------------------------------------------------------------|
A|----------------------------------------------------------------|
F|----------------------------------------------------------------|
C|-0-0-0-0-0-0-0-0-3-3-3-3-3-3-3-3-8-8-8-8-8-8-8-8-765-765-765-765|
G|-0-0-0-0-0-0-0-0-3-3-3-3-3-3-3-3-8-8-8-8-8-8-8-8-765-765-765-765|
C|-0-0-0-0-0-0-0-0-3-3-3-3-3-3-3-3-8-8-8-8-8-8-8-8-765-765-765-765|


[Breakdown]

(2:44 – 3:00)
D|----------------------------------------------------------------|
A|----------------------------------------------------------------|
F|----------------------------------------------------------------|
C|-765-765-765-765-321-321-321-321-321-321-321-321-321-321-321-321|
G|-765-765-765-765-321-321-321-321-321-321-321-321-321-321-321-321|
C|-765-765-765-765-321-321-321-321-321-321-321-321-321-321-321-321|

D|----------------------------------------------------------------|
A|----------------------------------------------------------------|
F|----------------------------------------------------------------|
C|-321-321-321-321-321-321-321-321-321-321-321-321-7-6-5----------|
G|-321-321-321-321-321-321-321-321-321-321-321-321-------543543543|
C|-321-321-321-321-321-321-321-321-321-321-321-321----------------|


[Guitar Break]

(Chorus / Overdub – With Weird Bird Effect)
(3:00 – 3:28)
D|----------------------------------------------------------------|
A|------------------------------------------------------(Bird Bit)|
F|-9~~~~~~~~~~~~------7~~~~~~~-------12~~~~~~~~~~~~~12h14~~~~~~~--|
C|----------------------------------------------------------------|
G|----------------------------------------------------------------|
C|----------------------------------------------------------------|

D|---------------------------------------------------------------|
A|---------------------------------------------------------------|
F|-9~~~~~~~~~~~~------7~~~~~~~-------5~~~~~~~~~~~~~---3~~~~2~~~~-|
C|---------------------------------------------------------------|
G|---------------------------------------------------------------|
C|---------------------------------------------------------------|

D|---------------------------------------------------------------|
A|---------------------------------------------------------------|
F|-9~~~~~~~~~~~~------7~~~~~~~-------12~~~~~~~~~~~~~12h14~~~14~~-|
C|---------------------------------------------------------------|
G|---------------------------------------------------------------|
C|---------------------------------------------------------------|

D|---------------------------------------------------------------|
A|---------------------------------------------------------------|
F|-9~~~~~~~~~~~~------7~~~~~~~-------5b(6)~~~~~~~----------------|
C|---------------------------------------------------------------|
G|---------------------------------------------------------------|
C|---------------------------------------------------------------|

Heavy Chorus W/Higher Part
(3:28 – 3:55)
D|----------------------------------------------------------------|
A|----------------------------------------------------------------|
F|-------------------------------------------------12b(14)--------|
C|-0---------------3---------------8------------------------------|
G|-0---------------3---------------8------------------------------|
C|-0---------------3---------------8------------------------------|

D|----------------------------------------------------------------|
A|----------------------------------------------------------------|
F|-------------------------------------------5~~~~~-3~~~~~--------|
C|-0---------------3---------------8------------------------------|
G|-0---------------3---------------8------------------------------|
C|-0---------------3---------------8------------------------------|

D|----------------------------------------------------------------|
A|----------------------------------------------------------------|
F|-------------------------------------------------12b(14)--------|
C|-0---------------3---------------8------------------------------|
G|-0---------------3---------------8------------------------------|
C|-0---------------3---------------8------------------------------|

D|----------------------------------------------------------------|
A|----------------------------------------------------------------|
F|-----------------------------------5b(6)~~~~~~------------------|
C|-0---------------3----------------------------------------------|
G|-0---------------3----------------------------------------------|
C|-0---------------3----------------------------------------------|


[Riff 1] x2

(3:55 – 4:09)
D|---------------------------------------------------------------|
A|---------------------------------------------------------------|
F|---------------------------------------------------------------|
C|-----------------------------------5p3--------8----------------|
G|------3h55-------3h55-------3h55--------5-----8----------------|
C|-0-0--------0-0--------0-0--------------------8----------------|

D|---------------------------------------------------------------|
A|---------------------------------------------------------------|
F|---------------------------------------------------------------|
C|------------------------7—6-5----------------------------------|
G|------3h55-------3h55------------5-4-3—---5-4-3----5-4-3-------|
C|-0-0--------0-0------------------------------------------------|


[Outro] 

(4:09 – 4:19)
D|---------------------------------------------------------------|
A|---------------------------------------------------------------|
F|---------------------------------------------------------------|
C|-0---0-0-0---0-0-0---0-0-0---0-0-0---0-0-0---0-0—10\3~~~~~~~~~~|
G|-0---0-0-0---0-0-0---0-0-0---0-0-0---0-0-0---0-0—10\3~~~~~~~~~~|
C|-0---0-0-0---0-0-0---0-0-0---0-0-0---0-0-0---0-0—10\3~~~~~~~~~~|


***********************************
| /   Slide up
| \   Slide down
| h   Hummer-on
| ~   Vibrato
| b   Bend
|(n)  Ghost note
***********************************

            
            
Suggest correction
Creating personal tab
Creating personal tab
You can edit any tab online and save it as your Personal.

You can edit, replace or remove any tab part or add personal notes – all changes will be seen only by you.

Personal tabs can be accessed anytime from any device, even offline.
Learn more »
Give kudos to tab author, rate the tab!
1 2 3 4 5
comments
print report bad tab
guest
You may want to rate the tab now too:
select rating
Wanna post a correction for this tab? Suggest correction