Oops, an error
Loading. Please wait.

Tyrant tab

version 1
version 1

Whole song

  • This is the song "Tyrant" by the band "Black Math ... Show more

Interactive

73 views 6 this week
no commentswrite comment
1 2 3 4 5
2 more votes to show rating
add to favorites
×
Save as Personal and add changes to this tab that will be seen only by you. Learn more ›
×
You can save this tab as Personal to edit and correct it or add notes. All changes will be seen only by you. Learn more »
launch autoscroll
font size
0
reset
how to read this tab
guitar tuner
edit
Autoscroll
slow
fast
+/-
esc
set tempo
stop
About this tab version
This is the song "Tyrant" by the band "Black Math Horseman" from their album "Wyllt" which released in 2009. This tab includes two guitars. The Guitar 2 tab is probably not have the exact notes in some parts, but is really close. Was this info helpful? Yes No
Artist: Black Math Horseman
Song: Tyrant
Album: Wyllt

[Intro]
(x8 bars solo drums)
(Guitar 1)
C#|------------12-12-------|------------------------|---------------|-----------------|
A#|------13-13-------13-13-|-------13-13-------8-8--|---------------|-----------------|
F#|------------------------|-14-14-------10-10------|-------10-10---|--(10)-----------|
C#|------------------------|------------------------|-10-10---------|-----------------|
G#|------------------------|------------------------|---------------|-----------------|
C#|------------------------|------------------------|---------------|-----------------|

D#|------------12-12-------|------------------------|---------------|-----------------|
A#|------13-13-------13-13-|-------13-13------12-12-|---------------|-----------------|
F#|------------------------|-14-14------10-10-------|-9-9--10-10----|--(10)-----------|
C#|------------------------|------------------------|---------------|-----------------|
G#|------------------------|------------------------|---------------|-----------------|
C#|------------------------|------------------------|---------------|-----------------|

D#|------------12-12-------|-15-15------------------|-8-8--7-7------|--(7)------------|
A#|------13-13-------13-12-|------12-12-13-13-10-10-|---------------|-----------------|
F#|------------------------|------------------------|---------------|-----------------|
C#|------------------------|------------------------|---------------|-----------------|
G#|------------------------|------------------------|---------------|-----------------|
C#|------------------------|------------------------|---------------|-----------------|

D#|------------12-12-------|------------------------|---------------|-----------------|
A#|------13-13-------11-11-|-------13-13-------8-8--|---------------|-----------------|
F#|------------------------|-14-14-------10-10------|-------10-10---|--(10)-----------|
C#|------------------------|------------------------|-10-10---------|-----------------|
G#|------------------------|------------------------|---------------|-----------------|
C#|------------------------|------------------------|---------------|-----------------|

C#|------------12-12-------|------------------------|---------------|-----------------|
A#|------13-13-------13-13-|-------13-13-------8-8--|---------------|-----------------|
F#|------------------------|-14-14-------10-10------|-------10-10---|--(10)-----------|
C#|------------------------|------------------------|-10-10---------|-----------------|
G#|------------------------|------------------------|---------------|-----------------|
C#|------------------------|------------------------|---------------|-----------------|

D#|------------12-12-------|------------------------|---------------|-----------------|
A#|------13-13-------13-13-|-------13-13------12-12-|---------------|-----------------|
F#|------------------------|-14-14------10-10-------|-9-9--10-10----|--(10)-----------|
C#|------------------------|------------------------|---------------|-----------------|
G#|------------------------|------------------------|---------------|-----------------|
C#|------------------------|------------------------|---------------|-----------------|

D#|------------12-12-------|-15-15------------------|-8-8--7-7------|--(7)------------|
A#|------13-13-------13-12-|------12-12-13-13-10-10-|---------------|-----------------|
F#|------------------------|------------------------|---------------|-----------------|
C#|------------------------|------------------------|---------------|-----------------|
G#|------------------------|------------------------|---------------|-----------------|
C#|------------------------|------------------------|---------------|-----------------|

D#|------------12-12-------|------------------------|---------------|-----------------|
A#|------13-13-------13-13-|-------13-13-------8-8b-|-8b-8----------|-----------------|
F#|------------------------|-14-14-------10-10------|------10-------|-----------------|
C#|------------------------|------------------------|---------12-12-|--(12)-----------|
G#|------------------------|------------------------|---------------|-----------------|
C#|------------------------|------------------------|---------------|-----------------|
                                                                                       (x1)

(Guitar 2)
D#|--------|--------|--------|--------|
A#|--------|--------|--------|--------|
F#|--------|--------|--------|--------|
C#|--10--9-|--7-----|--(7)---|--(7)\--|
G#|--------|--------|--------|--------|
C#|--------|--------|--------|--------|

D#|--------|--------|--------|--------|
A#|--------|--------|--------|--------|
F#|--10--9-|--7-----|--(7)---|--(7)\--|
C#|--10--9-|--7-----|--(7)---|--(7)\--|
G#|--------|--------|--------|--------|
C#|--------|--------|--------|--------|
                                       (x4)

[Verse 1]
(Guitar 1)   
       PM-|        PM
D#|--------------|-----------|
A#|--------------|-----------|
F#|--------------|-----------|
C#|--------------|-----------|
G#|--5-5-----5-5-|-----5-7-8-|
C#|------0-0-----|---0-------|
                              (x13)

(Guitar 2)
D#|----------|------3---|----------|----------|
A#|----------|----------|--6-------|------6---|
F#|----------|----------|----------|----------|
C#|------3---|--3-------|----3---3-|----3-----|
G#|----5---5-|----5---5-|------5---|--5-----5-|
C#|--0-------|----------|----------|----------|
                                               (x1)
D#|----------|------3---|----------|----------|
A#|--3-------|----------|--6-------|------6---|
F#|----------|----------|----------|----------|
C#|------3---|--3-------|----3---3-|----3-----|
G#|----5---5-|----5---5-|------5---|--5-----5-|
C#|----------|----------|----------|----------|
                                               (x5)
D#|----------|----3-----|
A#|--3-------|----------|
F#|----------|----------|
C#|------3---|--3-------|
G#|----5---5-|----------|
C#|----------|----------|
                         (x1)                      

[Chorus 1]
(Guitar 1)
D#|-----------------|---------------------------|
A#|-----------------|---------------------------|
F#|-----------------|---------------------------|
C#|-----------------|---------------------------|
G#|--5-5-5-5----5-5-|--5---5-7-8~---------------|
C#|--0-0-0-0-0--0-0-|--0-7----------------------|
                                                 (x3)
D#|-----------------|---------------------------|
A#|-----------------|---------------------------|
F#|-----------------|---------------------------|
C#|-----------------|---15-14----14-------------|
G#|--5-5-5-5----5-5-|---------15----15-14-15----|
C#|--0-0-0-0-0--0-0-|--0------------------------|
                                                 (x1)
D#|------------------------|---------------------------|
A#|------------------------|---------------------------|
F#|------------------------|---------------------------|
C#|------------------------|---------------------------|
G#|--17-17-17-17-----17-17-|------17-19-19br-----------|
C#|--------------x-x-------|--x-x----------------------|
                                                        
D#|------------------------|---------------------------| 
A#|------------------------|---------------------------|
F#|------------------------|---------------------------|
C#|------------------------|---------------------------|
G#|--17-17-17-17-----17-17-|------17-19-19br-19br------|
C#|--------------x-x-------|--x-x----------------------|

D#|------------------------|---------------------------|  
A#|------------------------|---------------------------|
F#|------------------------|---------------------------|
C#|------------------------|---------------------------|
G#|--17-17-17-17-----17-17-|------17-19-19br-----------|
C#|--------------x-x-------|--x-x----------------------|

D#|------------------------|---------------------------|
A#|------------------------|---------------------------|
F#|------------------------|---------------------------|
C#|------------------------|---15-14----14-------------|
G#|--17-17-17-17-----17-17-|---------15----15-14-15----|
C#|--------------x-x-------|--0------------------------|                
                                                        (x1)

(Guitar 2)
D#|----------------------------|----------------------------|
A#|----------------------------|----------------------------|
F#|--7--7--7--7--10-10-10-10---|--------------9--9--9--9----|
C#|--x--x--x--x---x--x--x--x---|--------------x--x--x--x----|
G#|--5--5--5--5---8--8--8--8---|--x--x--x--x--7--7--7--7----|
C#|----------------------------|--x--x--x--x----------------|

D#|----------------------------|----------------------------|
A#|----------------------------|----------------------------|
F#|--7--7--7--7--10-10-10-10---|--10--9--9--9--9--7--7--9---|
C#|--x--x--x--x---x--x--x--x---|---x--x--x--x--x--x--x--x---|
G#|--5--5--5--5---8--8--8--8---|---8--7--7--7--7--5--5--7---|
C#|----------------------------|----------------------------|
                                                             (x2)
D#|----------------------------|----------------------------|
A#|----------------------------|----------------------------|
F#|--7--7--7--7--------7--7----|--7--7--------7--7----------|
C#|--x--x--x--x--------x--x----|--x--x--------x--x----------|
G#|--5--5--5--5--x-x---5--5----|--5--5--x-x---5--5--x-x-----|
C#|--------------x-x-----------|--------x-x---------x-x-----|
                                                             (x4)
[Verse 2]
(Guitar 1)         
       PM-|        PM
D#|--------------|-----------|
A#|--------------|-----------|
F#|--------------|-----------|
C#|--------------|-----------|
G#|--------------|-----5-7-8-|
C#|--------------|---0-------|
                              (x1)
        PM-|        PM
D#|--------------|-----------|
A#|--------------|-----------|
F#|--------------|-----------|
C#|--------------|-----------|
G#|--5-5-----5-5-|-----5-7-8-|
C#|------0-0-----|---0-------|
                              (x14)

(Guitar 2)
D#|----------|------3---|----------|----------|
A#|----------|----------|--6-------|------6---|
F#|----------|----------|----------|----------|
C#|------3---|--3-------|----3---3-|----3-----|
G#|----5---5-|----5---5-|------5---|--5-----5-|
C#|--0-------|----------|----------|----------|
                                               (x1)
D#|----------|------3---|----------|----------|
A#|--3-------|----------|--6-------|------6---|
F#|----------|----------|----------|----------|
C#|------3---|--3-------|----3---3-|----3-----|
G#|----5---5-|----5---5-|------5---|--5-----5-|
C#|----------|----------|----------|----------|
                                               (x6)

[Bridge]
(Guitar 1)
C#|------------12-12-------|------------------------|---------------|-----------------|
A#|------13-13-------13-13-|-------13-13-------8-8--|---------------|-----------------|
F#|------------------------|-14-14-------10-10------|-------10-10---|--(10)-----------|
C#|------------------------|------------------------|-10-10---------|-----------------|
G#|------------------------|------------------------|---------------|-----------------|
C#|------------------------|------------------------|---------------|-----------------|

D#|------------12-12-------|------------------------|---------------|-----------------|
A#|------13-13-------13-13-|-------13-13------12-12-|---------------|-----------------|
F#|------------------------|-14-14------10-10-------|-9-9--10-10----|--(10)-----------|
C#|------------------------|------------------------|---------------|-----------------|
G#|------------------------|------------------------|---------------|-----------------|
C#|------------------------|------------------------|---------------|-----------------|

D#|------------12-12-------|-15-15------------------|-8-8--7-7------|--(7)------------|
A#|------13-13-------13-12-|------12-12-13-13-10-10-|---------------|-----------------|
F#|------------------------|------------------------|---------------|-----------------|
C#|------------------------|------------------------|---------------|-----------------|
G#|------------------------|------------------------|---------------|-----------------|
C#|------------------------|------------------------|---------------|-----------------|

D#|------------12-12-------|------------------------|---------------|-----------------|
A#|------13-13-------11-11-|-------13-13-------8-8--|---------------|-----------------|
F#|------------------------|-14-14-------10-10------|-------10-10b--|--(10)-----------|
C#|------------------------|------------------------|-10-10---------|-----------------|
G#|------------------------|------------------------|---------------|-----------------|
C#|------------------------|------------------------|---------------|-----------------|
                                                                                       (x1)
(Guitar 2)
D#|---------|----------|--------13-13-------|------------------------|
A#|---------|----------|--13-13-------13-13-|--12-12-13-13-12-12-\10-|
F#|---------|----------|--------------------|------------------------|
C#|---------|----------|--------------------|------------------------|
G#|---------|----------|--------------------|------------------------|
C#|---------|----------|--------------------|------------------------|
                                                                      (x3)
D#|--------13-13-------|-------------------------|
A#|--13-13-------13-13-|--12-12-13-13-12-12-\10--|
F#|--------------------|-------------------------|
C#|--------------------|-------------------------|
G#|--------------------|-------------------------|
C#|--------------------|-------------------------|

D#|----------------------------|------------------------------|
A#|--10-10-10-10-10-10-10~-10~-|--10~-10~-10~-10~-10-10--x--x-|
F#|----------------------------|-------------------------x--x-|
C#|----------------------------|------------------------------|
G#|----------------------------|------------------------------|
C#|----------------------------|-------------------------x--x-|
                                                               (x1)

[Chorus 2]
(Guitar 1)
D#|-----------------|---------------------------|
A#|-----------------|---------------------------|
F#|-----------------|---------------------------|
C#|-----------------|---------------------------|
G#|--5-5-5-5----5-5-|--5---5-7-8~---------------|
C#|--0-0-0-0-0--0-0-|--0-7----------------------|
                                                 (x3)
D#|-----------------|---------------------------|
A#|-----------------|---------------------------|
F#|-----------------|---------------------------|
C#|-----------------|---15-14----14-------------|
G#|--5-5-5-5----5-5-|---------15----15-14-15----|
C#|--0-0-0-0-0--0-0-|--0------------------------|
                                                 (x1)
D#|------------------------|---------------------------|
A#|------------------------|---------------------------|
F#|------------------------|---------------------------| 
C#|------------------------|---------------------------|
G#|--17-17-17-17-----17-17-|------17-19-19br-----------|
C#|--------------x-x-------|--x-x----------------------|
                                                        
D#|------------------------|---------------------------| 
A#|------------------------|---------------------------|
F#|------------------------|---------------------------|
C#|------------------------|---------------------------|
G#|--17-17-17-17-----17-17-|------17-19-19br-19br------|
C#|--------------x-x-------|--x-x----------------------|

D#|------------------------|---------------------------|
A#|------------------------|---------------------------|
F#|------------------------|---------------------------|
C#|------------------------|---------------------------|
G#|--17-17-17-17-----17-17-|------17-19-19br-----------|
C#|--------------x-x-------|--x-x----------------------|

D#|------------------------|---------------------------|
A#|------------------------|---------------------------|
F#|------------------------|---------------------------|
C#|------------------------|---15-14----14-------------|
G#|--17-17-17-17-----17-17-|---------15----15-14-15----|
C#|--------------x-x-------|--0------------------------|

D#|----------------------------|----------------------------|
A#|----------------------------|----------------------------|
F#|--7--7--7--7--------7--7----|--7--7--------7--7----------|
C#|--x--x--x--x--------x--x----|--x--x--------x--x----------|
G#|--5--5--5--5--------5--5----|--5--5--------5--5----------|
C#|--------------x--x----------|--------x--x--------x--x----|
                                                             (x2)
D#|----------------------------|----------------------------|
A#|----------------------------|----------------------------|
F#|--10-10-10-10-------10-10---|--10--10------10-10-10------|
C#|---x--x--x--x--------x--x---|---x--x--------x--x--x------|
G#|---8--8--8--8--------8--8---|---8--8--------8--8--8------|
C#|---------------x--x---------|---------x--x-----------x---|
                                                         
D#|-----------------------------|---------------------------|
A#|-----------------------------|---------------------------|
F#|--14--14--14--14------14--14-|--14--14-------17--17------|
C#|---x---x---x---x-------x--x--|---x---x--------x---x------|
G#|--12--12--12--12------12--12-|--12--12-------15--15------|
C#|-----------------x--x--------|----------x--x--------x--x-|

    ^
D#|-------|
A#|-------|
F#|--7----|
C#|--7----|
G#|--5----|
C#|--0----|
           (x1)

(Guitar 2)
D#|----------------------------|----------------------------|
A#|----------------------------|----------------------------|
F#|----------------------------|----------------------------|
C#|----------------------------|----------------------------|
G#|--5--5--5--5--------5--5----|--5--5--------5--5----------|
C#|--------------x--x----------|--------x--x--------x--x----|
                                                             (x2)                    
D#|----------------------------|----------------------------|
A#|----------------------------|----------------------------|
F#|----------------------------|----------------------------|
C#|----------------------------|----------------------------|
G#|--8--8--8--8--------8--8----|--8--8--------7--7--7-------|
C#|--------------x--x----------|--------x--x-----------x----|
                                                          
D#|----------------------------|----------------------------|
A#|----------------------------|----------------------------|
F#|----------------------------|----------------------------|
C#|----------------------------|----------------------------|
G#|--5--5--5--5--------5--5----|--5--5--------5--5----------|
C#|--------------x--x----------|--------x--x--------x--x----|
                                                             (x1)
D#|----------------------------|----------------------------|
A#|----------------------------|----------------------------|
F#|--7--7--7--7--------7--7----|--7--7--------7--7----------|
C#|--x--x--x--x--------x--x----|--x--x--------x--x----------|
G#|--5--5--5--5--------5--5----|--5--5--------5--5----------|
C#|-------------x--x----------|--------x--x--------x--x--|--|
                                                             (x2)                          
D#|----------------------------|----------------------------|
A#|----------------------------|----------------------------|
F#|--12-12-12-12-------12-12---|--12-12-------10-10-10------|
C#|---x--x--x--x--------x--x---|---x--x--------x--x--x------|
G#|--10-10-10-10-------10-10---|--10-10--------8--8--8------|
C#|---------------x--x----------|--------x--x-----------x---|
                                                         
D#|----------------------------|----------------------------|
A#|----------------------------|----------------------------|
F#|--7--7--7--7--------7--7----|--7--7--------7--7----------|
C#|--x--x--x--x--------x--x----|--x--x--------x--x----------|
G#|--5--5--5--5--------5--5----|--5--5--------5--5----------|
C#|--------------x--x----------|--------x--x--------x--x----|
                                                             (x1)
                                                          
D#|----------------------------|----------------------------|
A#|----------------------------|----------------------------|
F#|----------------------------|----------------------------|
C#|----------------------------|----------------------------|
G#|--5--5--5--5--------5--5----|--5--5--------5--5----------|
C#|--0--0--0--0--x--x--0--0----|--0--0--x--x--0--0--x--x----|
                                                             (x4)
     ^
D#|-------|
A#|-------|
F#|--7----|
C#|--7----|
G#|--5----|
C#|--0----|

************************************

| x   Dead note
| (n) Ghost note
| b   Bend
| br  Bend release
| \   Slide down
| ~   Vibrato
| PM  Palm mute
| ^   Brush down

************************************

            
            
Suggest correction
Creating personal tab
Creating personal tab
You can edit any tab online and save it as your Personal.

You can edit, replace or remove any tab part or add personal notes – all changes will be seen only by you.

Personal tabs can be accessed anytime from any device, even offline.
Learn more »
Give kudos to tab author, rate the tab!
1 2 3 4 5
comments
print report bad tab
guest
You may want to rate the tab now too:
select rating
Wanna post a correction for this tab? Suggest correction