Oops, an error
Loading. Please wait.

Mothers Of The Sun Tab

205 views 18 this week
no commentswrite comment
1 2 3 4 5
3 more votes to show rating
add to favorites
launch autoscroll
font size
0
reset
how to read this tab
guitar tuner
Autoscroll
slow
fast
+/-
esc
set tempo
stop
Help us to improve Ultimate-Guitar.com Take our survey!
×
Author
About this tab version
First version of the song. Was this info helpful? Yes No
-------------------------------------------------------------------------------
                             MOTHERS OF THE SUN - Black Mountain
-------------------------------------------------------------------------------
Tab by: Ian Wark

Tuning: Standard 

[Intro]
Synth thing plays approximately 16 times, then:
e|---------------------------------------------------------------------------|
B|---------------------------------------------------------------------------|
G|---------------------------------------------------------------------------|   x3
D|---------------------------------------------------------------------------|
A|------6--6~------------6h8p6-----------------------------------------------|
E|6--8---------8~---6--8-------8---------------------------------------------|

e|---------------------------------------------------------------------------|
B|---------------------------------------------------------------------------|
G|------8--8\----------------------------------------------------------------|  
D|5--8------------------------------10---------------------------------------|
A|---------------6--6--5h6-5h6------10---------------------------------------|
E|----------------------------------8----------------------------------------|

[Middle instrumental]
Wait until 3:28 then repeat this 4 times:
e|---------------------------------------------------------------------------|
B|---------------------------------------------------------------------------|
G|---------------------------------------------------------------------------|   x3
D|---------------------------------------------------------------------------|
A|------6--6~-------------6h8p6----------------------------------------------|
E|6--8----------8~---6--8-------8--------------------------------------------|

e|---------------------------------------------------------------------------|
B|---------------------------------------------------------------------------|
G|------8--8\----------------------------------------------------------------|  
D|5--8-----------------------------------------------------------------------|
A|---------------6--6--5h6-5h6-----------------------------------------------|
E|---------------------------------------------------------------------------|

At 4:23 play once:
e|---------------------------------------------------------------------------|
B|---------------------------------------------------------------------------|
G|--------8h10--8h10----7h8--7h8---------------------------------------------|  x2
D|6--------------------------------------------------------------------------|
A|--8--6---------------------------------------------------------------------|
E|---------------------------------------------------------------------------|

e|---------------------------------------------------------------------------|
B|---------------------------------------------------------------------------|
G|--------8h10--8h10----8p7--------------------------------------------------|  
D|6--------------------------------------------------------------------------|
A|--8--6---------------------------------------------------------------------|
E|---------------------------------------------------------------------------|

e|---------------------------------------------------------------------------|
B|---------------------------------------------------------------------------|
G|----------------------------------8----7----6-------------------------------|  
D|----------------------------------8----7----6----4--------------------------|
A|------6--6~------------6h8p6------6----5----4----4--------------------------|
E|6--8---------8~---6--8-------8-------------------2--------------------------|

At 4:40 repeat this twice:
e|---------------------------------------------------------------------------|
B|---------------------------------------------------------------------------|
G|---------------------------------------------------------------------------|   x3
D|---------------------------------------------------------------------------|
A|------6--6~-------------6h8p6----------------------------------------------|
E|6--8---------8~----6--8-------8--------------------------------------------|

e|---------------------------------------------------------------------------|
B|---------------------------------------------------------------------------|
G|8----7----6----------------------------------------------------------------|  
D|8----7----6----4-----------------------------------------------------------|
A|6----5----4----4-----------------------------------------------------------|
E|---------------2-----------------------------------------------------------|


At 5:07 repeat this twice
e|---------------------------------------------------------------------------|
B|---------------------------------------------------------------------------|
G|---------------------------------------------------------------------------|   
D|---------------------------------------------------------------------------|
A|------6--6~-------------6h8p6----------------------------------------------|
E|6--8----------8~---6--8-------8--------------------------------------------|

e|---------------------------------------------------------------------------|
B|---------------------------------------------------------------------------|
G|8----7----6----------------------------------------------------------------|  
D|8----7----6----4-----------------------------------------------------------|
A|6----5----4----4-----------------------------------------------------------|
E|---------------2-----------------------------------------------------------|

[Outro]
At 6:25 start with:
e|---------------------------------------------------------------------------|
B|---------------------------------------------------------------------------|
G|8----7----6----------------------------------------------------------------|  
D|8----7----6----4-----------------------------------------------------------|
A|6----5----4----4-----------------------------------------------------------|
E|---------------2-----------------------------------------------------------|

Repeat this twice:
e|---------------------------------------------------------------------------|
B|---------------------------------------------------------------------------|
G|---------------------------------------------------------------------------|   x3
D|---------------------------------------------------------------------------|
A|------6--6~-------------6h8p6----------------------------------------------|
E|6--8----------8~---6--8-------8--------------------------------------------|

e|---------------------------------------------------------------------------|
B|---------------------------------------------------------------------------|
G|8----7----6----------------------------------------------------------------|  
D|8----7----6----4-----------------------------------------------------------|
A|6----5----4----4-----------------------------------------------------------|
E|---------------2-----------------------------------------------------------|


Repeat this twice:
e|---------------------------------------------------------------------------|
B|---------------------------------------------------------------------------|
G|---------------------------------------------------------------------------|   
D|---------------------------------------------------------------------------|
A|------6--6~-------------6h8p6----------------------------------------------|
E|6--8----------8~---6--8-------8--------------------------------------------|

e|---------------------------------------------------------------------------|
B|---------------------------------------------------------------------------|
G|8----7----6----------------------------------------------------------------|  
D|8----7----6----4-----------------------------------------------------------|
A|6----5----4----4-----------------------------------------------------------|
E|---------------2-----------------------------------------------------------|


************************************

| h   hammer-on
| p   pull-off
| ~   vibrato
| \   slide down

************************************
Suggest correction
Give kudos to tab author, rate the tab!
1 2 3 4 5
comments
print report bad tab
guest
You may want to rate the tab now too:
select rating
Wanna post a correction for this tab? Suggest correction