Oops, an error
Loading. Please wait.

Hipster Shakes chords

version 1
version 1

Whole song

Interactive

262 views 12 this week
no commentswrite comment
1 2 3 4 5
3 more votes to show rating
add to favorites
×
Save as Personal and add changes to this tab that will be seen only by you. Learn more ›
×
You can save this tab as Personal to edit and correct it or add notes. All changes will be seen only by you. Learn more »
launch autoscroll
font size
0
reset
transpose
0
reset
display chords
guitar tuner
edit
Autoscroll
slow
fast
+/-
esc
set tempo
stop
Author
Difficulty
Strumming
There is no strumming pattern for this song yet. and get +5 IQ
[Intro]
e|--------------------------------3-3-3-|--------------------|      |
B|--------------------------------3-3-3-|--------------------|      |
G|-------3-----3--5--3-3-5-3-5b7--3-3-3-|----3----3--5--3----| F  G | All of this twice.
D|--3s5-----5---------------------------|-5-----5----------5-|      |
A|--------------------------------------|--------------------|      |
E|--------------------------------------|--------------------|      |

[Verse]
e|-----------------------|
B|-----------------------|
G|-----------------------| When "verse riff" : refer to this.
D|-----------------------|
A|--3s5s3--1--3--1-------|
E|------------------3--1-|

G and F are power chords.
G                         F     
My baby talks so much she lose her mind
G                    "Verse Riff"
Her violent hips and she knows how to treat me right
G                 F
I don't worry and I pay no mind
G                     "Verse Riff"
Chugging gasoline and she knows how to start a fire
G          G
Knee high, just a baby child
G                     "Verse Riff"   
Little heart breaker, old enough to tow the line
G                  F  
A cheeky smile and her daddy's good looks
G                "Verse Riff"
She grew up hard, stealin' hearts just like a crook

[Pre-Chorus]
e|--------------------------------------------|
A|--------------------------------------------|
G|--------------------------------------------|
D|--------------------------------------------|
A|--------------------------------------------|
E|-3h6p3--s10h13p10--8h10p8--3h6p3--s10h13p10-| C D

[Chorus]
e|--------------------------------3-3-3-|--------------------|      |
B|--------------------------------3-3-3-|--------------------|      |
G|-------3-----3--5--3-3-5-3-5b7--3-3-3-|----3----3--5--3----| F  G | All of this twice.
D|--3s5-----5---------------------------|-5-----5----------5-|      |
A|--------------------------------------|--------------------|      |
E|--------------------------------------|--------------------|      |
You better watch your man, before she steals him too
You better watch your man, I won't be made a...

[Verse]
e|-----------------------|
B|-----------------------|
G|-----------------------| When "verse riff" : refer to this.
D|-----------------------|
A|--3s5s3--1--3--1-------|
E|------------------3--1-|

G                          F
I've got mind to give ya a talking to
G                     "Verse Riff"  
Turn the other cheek, darlin' I ain't done with you
G            F
C'mon sugar, won't you take my shot
G                  "Verse Riff"
Arms folded across, show me what you really got
G          F
Knee high, just a baby child
G                     "Verse Riff"
Little heart breaker, old enough to tow the line
G                  F
A cheeky smile and her daddy's good looks
G                 "Verse Riff"
She grew up hard, stealin' hearts just like a crook

[Pre-Chorus]
e|--------------------------------------------|
A|--------------------------------------------|
G|--------------------------------------------|
D|--------------------------------------------|
A|--------------------------------------------|
E|-3h6p3--s10h13p10--8h10p8--3h6p3--s10h13p10-| C D

[Chorus]
e|--------------------------------3-3-3-|--------------------|      |
B|--------------------------------3-3-3-|--------------------|      |
G|-------3-----3--5--3-3-5-3-5b7--3-3-3-|----3----3--5--3----| F  G | All of this twice.
D|--3s5-----5---------------------------|-5-----5----------5-|      |
A|--------------------------------------|--------------------|      |
E|--------------------------------------|--------------------|      |
You better watch your man, before she steals him too
You better watch your man, I won't be made a...

[Breakdown]
No guitar is played till G at end

Hey mama the way you roll that cone, oh see you cuppin' and a rattlin' those bones
                                     G
C'mon down and do the hipster shake, someone let me out my cage

[Chorus]
e|--------------------------------3-3-3-|--------------------|      |
B|--------------------------------3-3-3-|--------------------|      |
G|-------3-----3--5--3-3-5-3-5b7--3-3-3-|----3----3--5--3----| F  G | All of this twice.
D|--3s5-----5---------------------------|-5-----5----------5-|      |
A|--------------------------------------|--------------------|      |
E|--------------------------------------|--------------------|      |
You better watch your man, before she steals him too
You better watch your man, I won't be made a...

[Solo]
Here is the tiny tiny solo at the end

Coming of a G chord e|--------13-13-------|
                    B|---13b15-----b13-11-|
                    G|--------------------|
                    D|--------------------|
                    A|--------------------|
                    E|--s15---------------|



************************************

| b  Bend
 
| s  
Slide

************************************

            
            
Suggest correction
Creating personal tab
Creating personal tab
You can edit any tab online and save it as your Personal.

You can edit, replace or remove any tab part or add personal notes – all changes will be seen only by you.

Personal tabs can be accessed anytime from any device, even offline.
Learn more »
Give kudos to tab author, rate the tab!
1 2 3 4 5
comments
print report bad tab
guest
You may want to rate the tab now too:
select rating
Wanna post a correction for this tab? Suggest correction