Oops, an error
Loading. Please wait.

Show Pony tab

55 views 12 this week
no commentswrite comment
1 2 3 4 5
3 more votes to show rating
add to favorites
×
Save as Personal and add changes to this tab that will be seen only by you. Learn more ›
×
You can save this tab as Personal to edit and correct it or add notes. All changes will be seen only by you. Learn more »
launch autoscroll
font size
0
reset
how to read this tab
guitar tuner
edit
Autoscroll
slow
fast
+/-
esc
set tempo
stop
[Intro]
e|---------------------------|---------------------------|
B|---------------------------|---------------------------|
G|---9-7b-9------------------|---9-7b-9------------------|
D|------------9-9-9-7--------|-----------9-9-9-7---------|
A|--------------------10-7-5-|-------------------10-7-5--|
E|-0-------------------------|-0-------------------------|

e|---------------------------|---------------------------|
B|---------------------------|---------------------------|
G|---9-7b-9------------------|---9-7b-9------------------|
D|------------9-9-9-7--------|-----------9-9-9-7---------|
A|--------------------10-7-5-|-------------------10-7-5--|
E|-0-------------------------|-0-------------------------|

[Verse]
e|---------------------------|---------------------------|
B|---------------------------|---------------------------|
G|---9-7b-9------------------|---9-7b-9------------------|
D|------------9-9-9-7--------|-----------9-9-9-7---------|
A|--------------------10-7-5-|-------------------10-7-5--|
E|-0-------------------------|-0-------------------------|

e|---------------------------|
B|---------------------------|
G|---9-7b-9------------------|
D|------------9-9-9-7--------|
A|--------------------10-7-5-|
E|-0-------------------------|

[Bridge]
e|----------------------------|---------------------------------------|
B|----------------------------|---------------------------------------|
G|-----------------------7-9--|----7-9--------------------------------|
D|-7-7-7-----5-7-7-------7-9--|----7-9----------------------7---------|
A|-7-7-7-----5-7-7-------5-7--|----5-7---------5b-----------7---------|
E|-5-5-5-----3-5-5------------|------------5-7----7-7-7-7-7-5---------|

[Verse]
e|---------------------------|---------------------------|
B|---------------------------|---------------------------|
G|---9-7b-9------------------|---9-7b-9------------------|
D|------------9-9-9-7--------|-----------9-9-9-7---------|
A|--------------------10-7-5-|-------------------10-7-5--|
E|-0-------------------------|-0-------------------------|

e|---------------------------|---------------------------|
B|---------------------------|---------------------------|
G|---9-7b-9------------------|---9-7b-9------------------|
D|------------9-9-9-7--------|-----------9-9-9-7---------|
A|--------------------10-7-5-|-------------------10-7-5--|
E|-0-------------------------|-0-------------------------|

e|---------------------------|---------------------------|
B|---------------------------|---------------------------|
G|---9-7b-9------------------|---9-7b-9------------------|
D|------------9-9-9-7--------|-----------9-9-9-7---------|
A|--------------------10-7-5-|-------------------10-7-5--|
E|-0-------------------------|-0-------------------------|

e|---------------------------|---------------------------|
B|---------------------------|---------------------------|
G|---9-7b-9------------------|---9-7b-9------------------|
D|------------9-9-9-7--------|-----------9-9-9-7---------|
A|--------------------10-7-5-|-------------------10-7-5--|
E|-0-------------------------|-0-------------------------|

[Bridge]
e|--------X-X-X-X-----------X-X-X-X-|-------------------------------------------|
B|--------X-X-X-X-----------X-X-X-X-|-------------------------------------------|
G|--------X-X-X-X-----------X-X-X-X-|-----------7-------------------------------|
D|--7--7--X-X-X-X---5--7-7--X-X-X-X-|-----------7------------------------7------|
A|--7--7--X-X-X-X---5--7-7--X-X-X-X-|---5-------5-----------5b-----------7------|
E|--5--5--X-X-X-X---3--5-5--X-X-X-X-|-----0-------0-----5-7----7-7-7-7-7-5------|

[Bridge 2]     
e|----------------12-12b-|---------------------------|
B|----------------15-15b-|---------------------------|
G|-----------------------|---------------------------|
D|-----------------------|---------------------------|
A|-------7---------------|-------7---------12-12b-10-|
E|-5-6-7---7-6-5/--------|-5-6-7---7-6-5/------------|

e|----------------12-12b-|---------------------------|
B|----------------15-15b-|---------------------------|
G|-----------------------|---------------------------|
D|-----------------------|---------------------------|
A|-------7---------------|-------7---------12-12b-10-|
E|-5-6-7---7-6-5/--------|-5-6-7---7-6-5/------------|

e|------5b------------5b-----------|
B|------8b-5-3-5------8b-5-3-5-----|
G|---------------------------------|
D|-7-7------------7-7--------------|
A|-7-7------------7-7--------------|
E|-5-5------------5-5--------------|

e|----------------12-12b-|---------------------------|
B|----------------15-15b-|---------------------------|
G|-----------------------|---------------------------|
D|-----------------------|---------------------------|
A|-------7---------------|-------7---------12-12b-10-|
E|-5-6-7---7-6-5/--------|-5-6-7---7-6-5/------------|

e|----------------------|
B|----------------------|
G|----------------------|
D|-9--9-9-9-9-9-9-9-7---|
A|-9--9-9-9-9-9-9-9-7---|
E|-7--7-7-7-7-7-7-7-5---|

[Verse]
e|---------------------------|---------------------------|
B|---------------------------|---------------------------|
G|---9-7b-9------------------|---9-7b-9------------------|
D|------------9-9-9-7--------|-----------9-9-9-7---------|
A|--------------------10-7-5-|-------------------10-7-5--|
E|-0-------------------------|-0-------------------------|

e|---------------------------|---------------------------|
B|---------------------------|---------------------------|
G|---9-7b-9------------------|---9-7b-9------------------|
D|------------9-9-9-7--------|-----------9-9-9-7---------|
A|--------------------10-7-5-|-------------------10-7-5--|
E|-0-------------------------|-0-------------------------|

e|---------------------------|---------------------------|
B|---------------------------|---------------------------|
G|---9-7b-9------------------|---9-7b-9------------------|
D|------------9-9-9-7--------|-----------9-9-9-7---------|
A|--------------------10-7-5-|-------------------10-7-5--|
E|-0-------------------------|-0-------------------------|

e|---------------------------|
B|---------------------------|
G|---9-7b-9------------------|
D|------------9-9-9-7--------|
A|--------------------10-7-5-|
E|-0-------------------------|

[Bridge]
e|-----------------------------|----------------------------------------|
B|-----------------------------|----------------------------------------|
G|-----------------------7-----|--7-------------------------------------|
D|-7-7-7-----5-7-7-------7-----|--7---------------------------7---------|
A|-7-7-7-----5-7-7-------5-----|--5--------------5b-----------7---------|
E|-5-5-5-----3-5-5---------0---|----0--------5-7----7-7-7-7-7-5---------|

e|-------------------|
B|-------------------|
G|-----4-2-0---------|
D|-----------4-------|
A|-------------------|
E|-5-7---------------|

[Bridge 2]
e|----------------12-12b-|---------------------------|
B|----------------15-15b-|---------------------------|
G|-----------------------|---------------------------|
D|-----------------------|---------------------------|
A|-------7---------------|-------7---------12-12b-10-|
E|-5-6-7---7-6-5-0-------|-5-6-7---7-6-5-0-----------|

e|----------------12-12b-|---------------------------|
B|----------------15-15b-|---------------------------|
G|-----------------------|---------------------------|
D|-----------------------|---------------------------|
A|-------7---------------|-------7---------12-12b-10-|
E|-5-6-7---7-6-5-0-------|-5-6-7---7-6-5-0-----------|

e|------5b-----------5b-----------|
B|------8b-5-3-------8b-5-3-------|
G|--------------------------------|
D|-7-7------------7-7-------------|
A|-7-7------------7-7-------------|
E|-5-5------------5-5-------------|

e|----------------12-12b-|---------------------------|
B|----------------15-15b-|---------------------------|
G|-----------------------|---------------------------|
D|-----------------------|---------------------------|
A|-------7---------------|-------7---------12-12b-10-|
E|-5-6-7---7-6-5-0-------|-5-6-7---7-6-5-0-----------|

e|----------------------|
B|----------------------|
G|----------------------|
D|-9--9-9-9-9-9-9-9-7---|
A|-9--9-9-9-9-9-9-9-7---|
E|-7--7-7-7-7-7-7-7-5---|

[Bridge 3]
e|-------------------------|--------------------------|
B|-------------------------|--------------------------|
G|-7-7---6-6---4-4---------|--7-7---6-6---4-4---------|
D|-7-7---6-6---4-4--5-7----|--7-7---6-6---4-4--5-7----|
A|-5-5---4-4---2-2--5-7----|--5-5---4-4---2-2--5-7----|
E|------------------3-5-0--|-------------------3-5-0--|

e|-------------------------|--------------------------|
B|-------------------------|--------------------------|
G|-7-7---6-6---4-4---------|--7-7---6-6---4-4---------|
D|-7-7---6-6---4-4--5-7----|--7-7---6-6---4-4--5-7----|
A|-5-5---4-4---2-2--5-7----|--5-5---4-4---2-2--5-7----|
E|------------------3-5-0--|-------------------3-5-0--|

e|----------------------|
B|----------------------|
G|----------------------|
D|-9--9-9-9-9-9-9-9-7---|
A|-9--9-9-9-9-9-9-9-7---|
E|-7--7-7-7-7-7-7-7-5---|

[Outro]
e|----------------12-12b-|---------------------------|
B|----------------15-15b-|---------------------------|
G|-----------------------|---------------------------|
D|-----------------------|---------------------------|
A|-------7---------------|-------7---------12-12b-10-|
E|-5-6-7---7-6-5/--------|-5-6-7---7-6-5/------------|

e|----------------12-12b-|---------------------------|
B|----------------15-15b-|---------------------------|
G|-----------------------|---------------------------|
D|-----------------------|---------------------------|
A|-------7---------------|-------7---------12-12b-10-|
E|-5-6-7---7-6-5/--------|-5-6-7---7-6-5/------------|

e|------5b-----------5b-----------|
B|------8b-5-3-------8b-5-3-------|
G|--------------------------------|
D|-7-7------------7-7-------------|
A|-7-7------------7-7-------------|
E|-5-5------------5-5-------------|

e|----------------12-12b-|---------------------------|
B|----------------15-15b-|---------------------------|
G|-----------------------|---------------------------|
D|-----------------------|---------------------------|
A|-------7---------------|-------7--------12b-10-----|
E|-5-6-7---7-6-5/--------|-5-6-7---7-6-5/------------|

e|----------------------|
B|----------------------|
G|----------------------|
D|-9--9-9-9-9-9-9-9-7---|
A|-9--9-9-9-9-9-9-9-7---|
E|-7--7-7-7-7-7-7-7-5---|

e|--------------------|
B|--------------------|
G|-----4-2-0----------|
D|-----------4--2-----|
A|--------------2-----|
E|-5-7----------0-----|


*********************************************************

| b - bend string up
| / - slide up
| \ - slide down
| x - play 'note' with heavy damping

*********************************************************

            
            
Suggest correction
Creating personal tab
Creating personal tab
You can edit any tab online and save it as your Personal.

You can edit, replace or remove any tab part or add personal notes – all changes will be seen only by you.

Personal tabs can be accessed anytime from any device, even offline.
Learn more »
Give kudos to tab author, rate the tab!
1 2 3 4 5
comments
print report bad tab
guest
You may want to rate the tab now too:
select rating
Wanna post a correction for this tab? Suggest correction