Oops, an error
Loading. Please wait.

Storm Cussin Tab

91 views 33 this week
no commentswrite comment
1 2 3 4 5
2 more votes to show rating
add to favorites
launch autoscroll
font size
0
reset
how to read this tab
guitar tuner
Autoscroll
slow
fast
+/-
esc
set tempo
stop
Help us to improve Ultimate-Guitar.com Take our survey!
×
Author
Difficulty
Capo
novice
4th fret
About this tab version
Standard Tuning and Capo on the 4th fret. Was this info helpful? Yes No
[Verse]
e|----------------------------|-------------------------------------------------------|
B|------------3h5--3----------|------------8h10--8---8-10-----------8h10--8----8-10b12|
G|-------------------4-2-2h4--|-------------------9------------------------9----------|
D|----------5-----------------|----------7-----------------------7--------------------|
A|------0-2-------------------|------5-7---------------------5-7----------------------|
E|--0-3-----------------------|--5-8---------------------5-8--------------------------|

 [Chorus]
e|-0-0-0-0---2-2-2-2---0-0---0-0|
B|-1-1-1-1---3-3-3-3---0-0---0-0|
G|-2-2-2-2---4-4-4-4---0-0---0-0|
D|-2-2-2-2---4-4-4-4---2-2---2-2|
A|-0-0-0-0---2-2-2-2---2-2---2-2|
E|---------------------0-0---0-0|

e|-0-0-0-0-2|
B|-1-1-1-1-0|
G|-0-0-0-0-2|
D|-2-2-2-2-1|
A|-3-3-3-3-2|
E|----------|

 [Solo]
e|--------0-3-0-3-5p3p0--------|
B|----3~----------------3p0-2-2|
G|--------------------------2-2| 
D|--2-----------------------2-2|
A|--2-----------------------0-0|
E|--0--------------------------|

e|--------0-3-0-3-5p3p0--------|
B|----3~----------------3h5----|
G|-----------------------------|
D|--2--------------------------|
A|--2--------------------------|
E|--0--------------------------|

e|----------2-2-2-2-|
B|--1-1-1-1-0-0-0-0-|
G|--0-0-0-0-2-2-2-2-|
D|--2-2-2-2-1-1-1-1-|
A|--3-3-3-3-2-2-2-2-|
E|------------------|

SONG ENDS WITH

e|--0-|
B|--0-|
G|--0-|
D|--2-|
A|--2-|
E|--0-|



************************************

| h  Hammer-on
| b  Bend
| p  Pull-off
| ~  Vibrato

************************************
Suggest correction
Give kudos to tab author, rate the tab!
1 2 3 4 5
comments
print report bad tab
guest
You may want to rate the tab now too:
select rating
Wanna post a correction for this tab? Suggest correction