Oops, an error
Loading. Please wait.

Eye For An Eye tab

25 views 1 this week
no commentswrite comment
1 2 3 4 5
3 more votes to show rating
add to favorites
×
Save as Personal and add changes to this tab that will be seen only by you. Learn more ›
×
You can save this tab as Personal to edit and correct it or add notes. All changes will be seen only by you. Learn more »
launch autoscroll
font size
0
reset
how to read this tab
guitar tuner
edit
Autoscroll
slow
fast
+/-
esc
set tempo
stop
About this tab version
This masterpiece was created by the almighty xXxinternetxXx. Was this info helpful? Yes No
[Intro]
e|-------------------|-------------------|-------------------|--------------------|
B|-------------------|-------------------|-------------------|--------------------|
G|5/7-7-7--7-7--7--7-|5/7-7-7--7-7--7--7-|5/7-7-7--7-7--7--7-|5/7-7-7--7-7--7-7-7-|
D|5/7-7-7--7-7--7--7-|5/7-7-7--7-7--7--7-|5/7-7-7--7-7--7--7-|5/7-7-7--7-7--7-7-7-| (x2)
A|3/5-5-5--5-5--5--5-|3/5-5-5--5-5--5--5-|3/5-5-5--5-5--5--5-|3/5-5-5--5-5--5-5-5-|
D|-------------------|-------------------|-------------------|--------------------|

e|------------------|--------------------|
B|------------------|--------------------|
G|------------------|----------------10--|
D|------------------|12--10--------------|
A|5--3--------------|--------12--10------|
D|------7--6--3--2--|--------------------|

[Verse]
e|-------------------|-------------------|-------------------|--------------------|
B|-------------------|-------------------|-------------------|--------------------|
G|5/7-7-7--7-7--7--7-|5/7-7-7--7-7--7--7-|5/7-7-7--7-7--7--7-|5/7-7-7--7-7--7-7-7-|
D|5/7-7-7--7-7--7--7-|5/7-7-7--7-7--7--7-|5/7-7-7--7-7--7--7-|5/7-7-7--7-7--7-7-7-| (x2)
A|3/5-5-5--5-5--5--5-|3/5-5-5--5-5--5--5-|3/5-5-5--5-5--5--5-|3/5-5-5--5-5--5-5-5-|
D|-------------------|-------------------|-------------------|--------------------|

e|------------|
B|------------|
G|------------|
D|------------|
A|5-3------8--|
D|-----7-6----|

e|-------------------|-------------------|-------------------|--------------------|
B|-------------------|-------------------|-------------------|--------------------|
G|5/7-7-7--7-7--7--7-|5/7-7-7--7-7--7--7-|5/7-7-7--7-7--7--7-|5/7-7-7--7-7--7-7-7-|
D|5/7-7-7--7-7--7--7-|5/7-7-7--7-7--7--7-|5/7-7-7--7-7--7--7-|5/7-7-7--7-7--7-7-7-| (x2)
A|3/5-5-5--5-5--5--5-|3/5-5-5--5-5--5--5-|3/5-5-5--5-5--5--5-|3/5-5-5--5-5--5-5-5-|
D|-------------------|-------------------|-------------------|--------------------|

e|-------------------|
B|-------------------|
G|-------------------|
D|3------------------|
A|3------------------|
D|3------------------|

[Chorus]
e|------------|----------------|----------------|------------------------|
B|------------|----------------|----------------|------------------------|
G|7--7--7--7--|10--10--10--10--|15--15--15--15--|12--10------------------|
D|7--7--7--7--|10--10--10--10--|15--15--15--15--|--------12--10----------|
A|5--5--5--5--|8---8---8---8---|13--13--13--13--|----------------12--10--|
D|------------|----------------|----------------|------------------------|

e|------------|------------|----------------------|----------------------|
B|------------|------------|----------------------|----------------------|
G|------------|------------|5/7-7-7--7-5/7-7-7--7-|5/7-7-7--7-5/7-7-7--7-|
D|3--3--3--3--|5--5--5--5--|5/7-7-7--7-5/7-7-7--7-|5/7-7-7--7-5/7-7-7--7-|
A|3--3--3--3--|5--5--5--5--|3/5-5-5--5-3/5-5-5--5-|3/5-5-5--5-3/5-5-5--5-|
D|3--3--3--3--|5--5--5--5--|----------------------|----------------------|

e|------------|----------------|----------------|------------------------|
B|------------|----------------|----------------|------------------------|
G|7--7--7--7--|10--10--10--10--|15--15--15--15--|12--10------------------|
D|7--7--7--7--|10--10--10--10--|15--15--15--15--|--------12--10----------|
A|5--5--5--5--|8---8---8---8---|13--13--13--13--|----------------12--10--|
D|------------|----------------|----------------|------------------------|

e|------------|------------|----------------------|----------------------|
B|------------|------------|----------------------|----------------------|
G|------------|------------|5/7-7-7--7-5/7-7-7--7-|5/7-7-7--7-5/7-7-7--7-|
D|3--3--3--3--|5--5--5--5--|5/7-7-7--7-5/7-7-7--7-|5/7-7-7--7-5/7-7-7--7-|
A|3--3--3--3--|5--5--5--5--|3/5-5-5--5-3/5-5-5--5-|3/5-5-5--5-3/5-5-5--5-|
D|3--3--3--3--|5--5--5--5--|----------------------|----------------------|

[Bridge]
e|------------------------|------------------|
B|------------------------|------------------|
G|------------------------|------------7--5--|
D|------------------------|------------7--5--| (x4)
A|5-3-0-3-5-3-5-3-0-3-5-3-|5-3-0-3-5-3-5--3--|
D|------------------------|------------------|

[Verse]
e|-------------------|-------------------|-------------------|--------------------|
B|-------------------|-------------------|-------------------|--------------------|
G|5/7-7-7--7-7--7--7-|5/7-7-7--7-7--7--7-|5/7-7-7--7-7--7--7-|5/7-7-7--7-7--7-7-7-|
D|5/7-7-7--7-7--7--7-|5/7-7-7--7-7--7--7-|5/7-7-7--7-7--7--7-|5/7-7-7--7-7--7-7-7-| (x4)
A|3/5-5-5--5-5--5--5-|3/5-5-5--5-5--5--5-|3/5-5-5--5-5--5--5-|3/5-5-5--5-5--5-5-5-|
D|-------------------|-------------------|-------------------|--------------------|

e|-------------------|
B|-------------------|
G|-------------------|
D|3------------------|
A|3------------------|
D|3------------------|

[Chorus]
e|------------|----------------|----------------|------------------------|
B|------------|----------------|----------------|------------------------|
G|7--7--7--7--|10--10--10--10--|15--15--15--15--|12--10------------------|
D|7--7--7--7--|10--10--10--10--|15--15--15--15--|--------12--10----------|
A|5--5--5--5--|8---8---8---8---|13--13--13--13--|----------------12--10--|
D|------------|----------------|----------------|------------------------|

e|------------|------------|----------------------|----------------------|
B|------------|------------|----------------------|----------------------|
G|------------|------------|5/7-7-7--7-5/7-7-7--7-|5/7-7-7--7-5/7-7-7--7-|
D|3--3--3--3--|5--5--5--5--|5/7-7-7--7-5/7-7-7--7-|5/7-7-7--7-5/7-7-7--7-|
A|3--3--3--3--|5--5--5--5--|3/5-5-5--5-3/5-5-5--5-|3/5-5-5--5-3/5-5-5--5-|
D|3--3--3--3--|5--5--5--5--|----------------------|----------------------|

e|------------|----------------|----------------|------------------------|
B|------------|----------------|----------------|------------------------|
G|7--7--7--7--|10--10--10--10--|15--15--15--15--|12--10------------------|
D|7--7--7--7--|10--10--10--10--|15--15--15--15--|--------12--10----------|
A|5--5--5--5--|8---8---8---8---|13--13--13--13--|----------------12--10--|
D|------------|----------------|----------------|------------------------|

e|------------|------------|----------------------|----------------------|
B|------------|------------|----------------------|----------------------|
G|------------|------------|5/7-7-7--7-5/7-7-7--7-|5/7-7-7--7-5/7-7-7--7-|
D|3--3--3--3--|5--5--5--5--|5/7-7-7--7-5/7-7-7--7-|5/7-7-7--7-5/7-7-7--7-|
A|3--3--3--3--|5--5--5--5--|3/5-5-5--5-3/5-5-5--5-|3/5-5-5--5-3/5-5-5--5-|
D|3--3--3--3--|5--5--5--5--|----------------------|----------------------|

[Bridge]
e|------------------------|------------------------|------------------------|------------------|
B|------------------------|------------------------|------------------------|------------------|
G|------------------------|------------------------|------------------------|------------7--5--|
D|------------------------|------------------------|------------------------|------------7--5--| (x2)
A|5-3-0-3-5-3-5-3-0-3-5-3-|5-3-0-3-5-3-5-3-0-3-5-3-|5-3-0-3-5-3-5-3-0-3-5-3-|5-3-0-3-5-3-5--3--|
D|------------------------|------------------------|------------------------|------------------|

e|----------------------|----------------------|----------------------|------------------|
B|----------------------|----------------------|----------------------|------------------|
G|7--7----------12--10--|7--7----------12--10--|7--7----------12--10--|------------------|
D|7--7--10--12----------|7--7--10--12----------|7--7--10--12----------|------------------|
A|5--5------------------|5--5------------------|5--5------------------|5--3--------------|
D|----------------------|----------------------|----------------------|------7--6--3--2--|

e|----------------------|----------------------|----------------------|------------------------|
B|----------------------|----------------------|----------------------|------------------------|
G|7--7----------12--10--|7--7----------12--10--|7--7----------12--10--|12--10------------------|
D|7--7--10--12----------|7--7--10--12----------|7--7--10--12----------|--------12--10----------|
A|5--5------------------|5--5------------------|5--5------------------|----------------12--10--|
D|----------------------|----------------------|----------------------|------------------------|

e|------------|------------|----------------------|----------------------|
B|------------|------------|----------------------|----------------------|
G|------------|------------|5/7-7-7--7-5/7-7-7--7-|5/7-7-7--7-5/7-7-7--7-|
D|3--3--3--3--|5--5--5--5--|5/7-7-7--7-5/7-7-7--7-|5/7-7-7--7-5/7-7-7--7-|
A|3--3--3--3--|5--5--5--5--|3/5-5-5--5-3/5-5-5--5-|3/5-5-5--5-3/5-5-5--5-|
D|3--3--3--3--|5--5--5--5--|----------------------|----------------------|

[Chorus]
e|------------|----------------|----------------|------------------------|
B|------------|----------------|----------------|------------------------|
G|7--7--7--7--|10--10--10--10--|15--15--15--15--|12--10------------------|
D|7--7--7--7--|10--10--10--10--|15--15--15--15--|--------12--10----------|
A|5--5--5--5--|8---8---8---8---|13--13--13--13--|----------------12--10--|
D|------------|----------------|----------------|------------------------|

e|------------|------------|----------------------|----------------------|
B|------------|------------|----------------------|----------------------|
G|------------|------------|5/7-7-7--7-5/7-7-7--7-|5/7-7-7--7-5/7-7-7--7-|
D|3--3--3--3--|5--5--5--5--|5/7-7-7--7-5/7-7-7--7-|5/7-7-7--7-5/7-7-7--7-|
A|3--3--3--3--|5--5--5--5--|3/5-5-5--5-3/5-5-5--5-|3/5-5-5--5-3/5-5-5--5-|
D|3--3--3--3--|5--5--5--5--|----------------------|----------------------|

e|------------|----------------|----------------|------------------------|
B|------------|----------------|----------------|------------------------|
G|7--7--7--7--|10--10--10--10--|15--15--15--15--|12--10------------------|
D|7--7--7--7--|10--10--10--10--|15--15--15--15--|--------12--10----------|
A|5--5--5--5--|8---8---8---8---|13--13--13--13--|----------------12--10--|
D|------------|----------------|----------------|------------------------|

e|------------|------------|----------------------|----------------------|
B|------------|------------|----------------------|----------------------|
G|------------|------------|5/7-7-7--7-5/7-7-7--7-|5/7-7-7--7-5/7-7-7--7-|
D|3--3--3--3--|5--5--5--5--|5/7-7-7--7-5/7-7-7--7-|5/7-7-7--7-5/7-7-7--7-|
A|3--3--3--3--|5--5--5--5--|3/5-5-5--5-3/5-5-5--5-|3/5-5-5--5-3/5-5-5--5-|
D|3--3--3--3--|5--5--5--5--|----------------------|----------------------|

[Bridge]
e|----------------------|----------------------|----------------------|------------------|
B|----------------------|----------------------|----------------------|------------------|
G|7--7----------12--10--|7--7----------12--10--|7--7----------12--10--|------------------|
D|7--7--10--12----------|7--7--10--12----------|7--7--10--12----------|------------------|
A|5--5------------------|5--5------------------|5--5------------------|5--3--------------|
D|----------------------|----------------------|----------------------|------7--6--3--2--|

e|----------------------|----------------------|----------------------|------------------------|
B|----------------------|----------------------|----------------------|------------------------|
G|7--7----------12--10--|7--7----------12--10--|7--7----------12--10--|12--10------------------|
D|7--7--10--12----------|7--7--10--12----------|7--7--10--12----------|--------12--10----------|
A|5--5------------------|5--5------------------|5--5------------------|----------------12--10--|
D|----------------------|----------------------|----------------------|------------------------|

[Ending]
e|-------------------------|
B|-------------------------|
G|7-7-7-7-7-7-7-7-7-7-7-7--|
D|7-7-7-7-7-7-7-7-7-7-7-7--|
A|5-5-5-5-5-5-5-5-5-5-5-5--|
D|-------------------------|


************************************

| /  Slide up

************************************

            
            
Suggest correction
Creating personal tab
Creating personal tab
You can edit any tab online and save it as your Personal.

You can edit, replace or remove any tab part or add personal notes – all changes will be seen only by you.

Personal tabs can be accessed anytime from any device, even offline.
Learn more »
Give kudos to tab author, rate the tab!
1 2 3 4 5
comments
print report bad tab
guest
You may want to rate the tab now too:
select rating
Wanna post a correction for this tab? Suggest correction