Oops, an error
Loading. Please wait.

Aint No Easy Way tab

version 2
version 2

Whole song

Interactive

20,924 views 15 this week
no commentswrite comment
1 2 3 4 5
2 more votes to show rating
add to favorites
×
Save as Personal and add changes to this tab that will be seen only by you. Learn more ›
×
You can save this tab as Personal to edit and correct it or add notes. All changes will be seen only by you. Learn more »
launch autoscroll
font size
0
reset
how to read this tab
guitar tuner
edit
Autoscroll
slow
fast
+/-
esc
set tempo
stop
Difficulty
intermediate
-------------------------------------------------------------------------------
                            Ain't No Easy Way Out
                                                Black Rebel Motorcycle Club
-------------------------------------------------------------------------------
Tabbed by:Chris B
Email: infragreen72@yahoo.com

Tuning: D A D A B D   ( I think)   It sounds pretty close. This is a simple outline
of the tune. There are a few other electric and twelve string parts mixed in that
I'm not detailing here.   This a fun litte tune you can really beat your acoustaxe
on.  ENJOY!!

CAPO AT FIRST FRET.

*bend top note 1/4                *bend top note       #bend bottom note 1/2
D|--*4p----------------------------------*4p--------------------------------|
B|---2-------4-----4--4--2--2---4--4---4--2--2--2-2----4--------------------|
A|---1-------1-----1--1--1--1---1--1---1--1--1--1-1----1-----------lather---|
D|---1-------1-----1--1--1--1---1--1---1--1--1--1-1----1-----1-1-----rinse--|
A|---1-------1-----1--1--1--1---1--1---1--1-----1------1-----1-1-----repeat-|
D|---1-------1--------1--1------1---------------1--------#4p-1-1-------riff-|

Slide part                                         *REPEAT x12  harmonica solo
D|-------------------------------------------------------------------------|
B|---------------------------------------------------------*--2---2--4--4--|
A|-4-/6-6-6---1--1--4-/6---6---6---1--1--4-4--3p--1--1-----*--1---1--1--1--|
D|-4-/6-6-6---1--1--4-/6---6---6---1--1--4-4--3p--1--1-----*--1---1--1--1--|
A|-4-/6-6-6---1--1--4-/6---6---6---1--1--4-4--3p--1--1-----*--1---1--1--1--|
D|-4-/6-6-6---1--1--4-/6---6---6---1--1--4-4--3p--1--1---------------------|


 also a little slide if you can throw it in the verse and harmonica part
D|---------------13\--------------------|
B|--------------------------------------|
A|----------------------------- --------|
D|--------------------------------------|
A|--------------------------------------|
D|--------------------------------------|

| /  slide up
| \  slide down
| h  hammer-on
| p  pull-off

            
            
Suggest correction
Creating personal tab
Creating personal tab
You can edit any tab online and save it as your Personal.

You can edit, replace or remove any tab part or add personal notes – all changes will be seen only by you.

Personal tabs can be accessed anytime from any device, even offline.
Learn more »
Give kudos to tab author, rate the tab!
1 2 3 4 5
comments
print report bad tab
guest
Wanna post a correction for this tab? Suggest correction