Oops, an error
Loading. Please wait.

Down Here intro tab

1,271 views 1 this week
1 commentread comment
1 2 3 4 5
3 more votes to show rating
add to favorites
×
Save as Personal and add changes to this tab that will be seen only by you. Learn more ›
×
You can save this tab as Personal to edit and correct it or add notes. All changes will be seen only by you. Learn more »
launch autoscroll
font size
0
reset
how to read this tab
guitar tuner
edit
Autoscroll
slow
fast
+/-
esc
set tempo
stop
Author
Difficulty
Tuning: Standard


There maybe a capo used on the 1st or 2nd frets.

There are so many forms of the chords below but I have just posted the formation that
closest. The open B string is not a necessity.

Chords used:  E7 (7-x-0-9-0-x-|
         F#m (9-x-7-11-0-x----|
               G (3-x-0-4-0-x-|

e|-----------------------------------------------------------------|
B|--0--0--0--0--0--0--0--0--0--0--0--0--0--0--0--0--0--0-----------|
G|--9--9--9--9--11--11--11--11-4--4--4--4--4--4--4--4--4-----------|
D|--0--0--0--0--7--7--7--7--7--0--0--0--0--0--0--0--0--0-----------|
A|--x--x--x--x--x--x--x--x--x--x--x--x--x--x--x--x--x--x-----------|
E|--7--7--7--7--9--9--9--9--9--3--3--3--3--3--3--3--3--3-----------|


Down here they say there's a game to play there's a place to go where you learn how to
no one seems to care but they'll give you a stare down here

they're gonna steal your breathe
so give it away
they're gonna steal your mind
so give it away
they're gonna steal your soul so give it away
down here

| /  slide up
| \  slide down
| h  hammer-on
| p  pull-off
| ~  vibrato
| +  harmonic
| x  Mute note

Edits are welcomed.

            
            
Suggest correction
Creating personal tab
Creating personal tab
You can edit any tab online and save it as your Personal.

You can edit, replace or remove any tab part or add personal notes – all changes will be seen only by you.

Personal tabs can be accessed anytime from any device, even offline.
Learn more »
Give kudos to tab author, rate the tab!
1 2 3 4 5
comments
print report bad tab
1 comment total.
0 reply
niggel.n 292 Aug 05, 2010 12:24 PM

these are the intro chords:

e|-------------
B|--0---0---0--
G|--9---11--4-
D|--0---0---0--
A|--x---x---x--
E|--8---10--3

guest
You may want to rate the tab now too:
select rating
Wanna post a correction for this tab? Suggest correction