Oops, an error
Loading. Please wait.

Fault Line Tab

version 1
version 1

Whole song

14,558 views 21 this week
2 commentsread comments
1 2 3 4 5
accurate
x 5
add to favorites
launch autoscroll
font size
0
reset
how to read this tab
guitar tuner
Autoscroll
slow
fast
+/-
esc
set tempo
stop
Help us to improve Ultimate-Guitar.com Take our survey!
×
Author
Fault Line
I'm not sure about the lyrics, but I wanted to try and tab this.
There might be second guitar playing few notes.


Intro and verse
e|------------2--------------------------------- repeat-----------------------|
B|-------3--------------------------3----------- repeat-----------------------|
G|-----------------------------0-----------------repeat-----------------------|
D|---0-----------------0/3-----------------------repeat-----------------------|
A|---------------------------------------------- repeat ----------------------|
E|---------------------------------------------- repeat ----------------------|

Chorus
e|----------3--------------------------------------3--------------------------|
B|----------------1------------------1-----------------3----------------------|
G|------------------------------0-------------------------------------0-------|
D|----------------------0/2---------------------------------------0-----------|
A|--3-------------------------------------------------------0/2---------------|
E|------------------------------------------3---------------------------------|


e|------------2--------------------------------- repeat-----------------------|
B|-------3--------------------------3----------- repeat-----------------------|
G|-----------------------------0-----------------repeat-----------------------|
D|---0-----------------0/3-----------------------repeat-----------------------|
A|---------------------------------------------- repeat ----------------------|
E|---------------------------------------------- repeat ----------------------|

Outro

e|---------0--------------------------------3---------------------------------|
B|-------------1--------------1------------------1-------------1--------------|
G|-----------------------2---------------------------------0------------------|
D|--------------- 0/2-------------------------------0/2-----------------------|
A|--0--------------------------------3----------------------------------------|
E|----------------------------------------------------------------------------|

e|---------3---------------------------2--------------------------------------|
B|--------------3--------------------------3------------3---------------------|
G|----------------------------0-----------------------0-----------------------|
D|-----------------------0---------0----------0/3-----------------------------|
A|-----------------0/2------------------------------ -------------------------|
E|---3-------------------------------------------- ---------------------------|

                                     <--------play 2 times---->

D
I've been waitin on the fault line
Let  the needle take me on
I've been standing with mine dying bird
If you get it come along

C                      G                       D
Risen with her eyes and tied to my father's door
Risen with her eyes and tied to my father's door

D
I've been lying in the bright light
Seeing my shadow from below
Never wanted from another man
Never wanted from my own

C                          G                    D
Drowning in her eyes and tied to my father's door
Drowning in her eyes and tied to my father's door

D
Harmonica solo

D
Through a window to the last mile
Laid a picture on a wall
From the banks on the far side
See the lights come on shore

C                     G                        D
Risen with her eyes and tied to my father's door
Risen with her eyes and tied to my father's door
Risen with her eyes and tied to my father's door


Outro Am C G D
Suggest correction
What's this?
You can suggest a correction to this tab. Community and Mods will review your correction and vote to approve or reject it.
comments
print report bad tab
2 comments total.
+1 reply
AlyNich23 13 wrote on April 17 2008, 11:40 pm

Good tab, here are the correct lyrics:

I've been waitin' on the fault line
Let the needle take me on
I'll be standing with my dyin' bell
If you care to come along
Racin' with the risin' tide to my father's door
Racin' with the risin' tide to my father's door

I've been lyin' in the bright lights
See my shadow from below
Never wanted from another man
Never wanted from my own
Drownin' in the risin' tide in my father's door
Drownin' in the risin' tide in my father's door

Through a window to the last mile
Little picture on the wall
From the banks on the far side
See the lights come ashore
Racin' from the risin' tide to my father's door
Racin' from the risin' tide to my father's door
Racin' with the risin' tide to my father's door

+1 reply
JPoops 17 wrote on May 6 2013, 08:15 pm

Great tab and thanks for doing most of the hard work for this song.

The initial two notes sound off though and appear to be listed backwards I think. Knowing this song for some time and having an ear for it, I believe that the second and third notes (the D & F#) you tabbed should be reversed:

jam_ed's original tab: Instead I believe it should be:


Intro and verse
e|------------2------ |--------2--------------
B|-------3----------- |------------3----------
G|------------------- |-----------------------
D|---0--------------- |------0----------------
A|------------------- |-----------------------
E|------------------- |-----------------------


Maybe I'm wrong, the rest of the tab looks good. Please comment further if I'm off the mark. Thanks...

guest
You may want to rate the tab now too:
select rating
Please do not post tabs as comments. Select "correction" instead!