Oops, an error
Loading. Please wait.

Need Some Air Bass Tab

version 1
version 1

Whole song

Interactive

19 views 1 this week
no commentswrite comment
1 2 3 4 5
3 more votes to show rating
add to favorites
launch autoscroll
font size
0
reset
guitar tuner
Autoscroll
slow
fast
+/-
esc
set tempo
stop
Help us to improve Ultimate-Guitar.com Take our survey!
×
[Intro, Verse]

G|------------------------------------------| Repeat 20 Times
D|------------------------------------------|
A|----------------4-4-4-7-7-7-6-4-----------|
E|--6-6-6-6-6-6-6---------------------------|

[Pre-Chorus]

G|------------------------------------------------|
D|------------------------------------------------|
A|-6-6-6-6-6-6-6-6-6-6-6-6-6-4-6-4----------------|
E|------------------------------------------------|

[Chorus]

G|--------------------------------------------------------| Repeat 4 Times
D|--------------------------------------------------------|
A|-----------4-4-4-4-4-----------6-6-6-6-6----------------|
E|-6-6-6-6-6-----------2-2-2-2-2--------------------------|

[Post Chorus, Verse]

G|------------------------------------------| Repeat 16 Times
D|------------------------------------------|
A|----------------4-4-4-7-7-7-6-4-----------|
E|--6-6-6-6-6-6-6---------------------------|

[Pre-Chorus]

G|------------------------------------------------| 
D|------------------------------------------------|
A|-6-6-6-6-6-6-6-6-6-6-6-6-6-4-6-4----------------|
E|------------------------------------------------|

[Chorus]

G|--------------------------------------------------------| Repeat 4 Times
D|--------------------------------------------------------|
A|-----------4-4-4-4-4-----------6-6-6-6-6----------------|
E|-6-6-6-6-6-----------2-2-2-2-2--------------------------|

[Post Chorus]

G|------------------------------------------| Repeat 2 Times
D|------------------------------------------|
A|----------------4-4-4-7-7-7-6-4-----------|
E|--6-6-6-6-6-6-6---------------------------|

[Bridge]


G|------6-------6---6------6-------6-\9--------------| Repeat 4 Times
D|--8-8---8-8-8---8----8-8---8-8-8-------------------|
A|---------------------------------------------------|
E|---------------------------------------------------|

[Verse]

G|------------------------------------------| Repeat 4 Times
D|------------------------------------------|
A|----------------4-4-4-7-7-7-6-4-----------|
E|--6-6-6-6-6-6-6---------------------------|

[Pre-Chorus]

G|------------------------------------------------| Repeat 4 Times
D|-------------7-7-7-6-4-4------------------------|
A|-6-6-6-6-6-6------------------------------------|
E|------------------------------------------------|

[Outro]

G|--------------------------------------------------------| Repeat 8 Times
D|--------------------------------------------------------|
A|-----------4-4-4-4-4-----------6-6-6-6-6----------------|
E|-6-6-6-6-6-----------2-2-2-2-2--------------------------|



************************************

| \  Slide down

************************************
Suggest correction
Give kudos to tab author, rate the tab!
1 2 3 4 5
comments
print report bad tab
guest
You may want to rate the tab now too:
select rating
Wanna post a correction for this tab? Suggest correction