Oops, an error
Loading. Please wait.

Not What You Wanted Bass Tab

10 views 1 this week
no commentswrite comment
1 2 3 4 5
3 more votes to show rating
add to favorites
launch autoscroll
font size
0
reset
guitar tuner
Autoscroll
slow
fast
+/-
esc
set tempo
stop
Help us to improve Ultimate-Guitar.com Take our survey!
×
[Intro]

G|--------------------------------------------------------------|
D|--------------------------------------------------------------|
A|-------------------------------------------7-7-7-7------------|
E|-0-0-0-0-0-0-0-0-0-0-0-0-0-0-0-0-0-0-0-0-0--------------------|

G|---------------------------------------------------|
D|---------------------------------------------------|
A|---------------------------------------------------|
E|-5-5-5-5-5-5-5-5-5-5-5-5-5-5-0-0-0-0-0-0-0-0-0-0-0-|


[Verse]

G|-------------------------------------------|-------------------------------------------------------|
D|-------------------------------------------|-------------------------------------------------------|
A|-------------------------------------------|-------------------------------------------------------|
E|-0-0-0-0-0-0-0-0-0-0-0-0-0-0-0-0-0-0-0-0-0-|-5-5-5-5-5-5-5-5-5-5-5-5-5-5-5-5-0-0-0-0-0-0-0-0-0-0-0-|

G|--------------------------------------------|-------------------------------------------------------|
D|--------------------------------------------|-------------------------------------------------------|
A|-----------------------------------7-7-9-11-|-------------------------------------------------------|
E|-0-0-0-0-0-0-0-0-0-0-0-0-0-0-0-0-0----------|-5-5-5-5-5-5-5-5-5-5-5-5-5-5-5-5-0-0-0-0-0-0-0-0-0-0-0-|

G|-----------------------------|-----------------------------|
D|-----------------------------|-----------------------------|
A|-4-4-4-4-4-4-4-4-4-4-4-4-4-4-|-7-7-7-7-7-7-7-7-7-7-7-7-7-7-|
E|-----------------------------|-----------------------------|


[Chorus]

G|---------------------------------------------------------------------------|
D|---------------------------------------------------------------------------|
A|-7-7-7-7-7-7-7-7-7-7-7-7-7-7-----------------------------------------------|
E|-----------------------------7-7-7-7-7-7-7-7-7-7-7-7-5-5-5-5-5-5-5-5-5-5-5-|

G|-------------------------------------------------------------|
D|-----------------------------4-4-6---------------------------|
A|-7-7-7-7-7-7-7-7-7-7-7-7-7-7---------------------------------|
E|-----------------------------------5-5-5-5-5-5-5-5-5-5-5-5---|

[Verse]

G|--------------------------------------------|-------------------------------------------------------|
D|--------------------------------------------|-------------------------------------------------------|
A|-----------------------------------7-7-9-11-|-------------------------------------------------------|
E|-0-0-0-0-0-0-0-0-0-0-0-0-0-0-0-0-0----------|-5-5-5-5-5-5-5-5-5-5-5-5-5-5-5-5-0-0-0-0-0-0-0-0-0-0-0-|

G|-----------------------------|-----------------------------|
D|-----------------------------|-----------------------------|
A|-4-4-4-4-4-4-4-4-4-4-4-4-4-4-|-7-7-7-7-7-7-7-7-7-7-7-7-7-7-|
E|-----------------------------|-----------------------------|

[Chorus]

G|---------------------------------------------------------------------------|
D|---------------------------------------------------------------------------|
A|-7-7-7-7-7-7-7-7-7-7-7-7-7-7-----------------------------------------------|
E|-----------------------------7-7-7-7-7-7-7-7-7-7-7-7-5-5-5-5-5-5-5-5-5-5-5-|

G|-------------------------------------------------------------|
D|-----------------------------4-4-6---------------------------|
A|-7-7-7-7-7-7-7-7-7-7-7-7-7-7---------------------------------|
E|-----------------------------------5-5-5-5-5-5-5-5-5-5-5-5---|

G|-------------------------------------------------------------|
D|-------------------------------------------------------------|
A|-7-7-7-7-7-7-7-7-7-7-7-7-7-7-7-7-7---------------------------|
E|-----------------------------------5-5-5-5-5-5-5-5-5-5-5-5---|

G|-------------------------------------------------------------|
D|-------------------------------------------------------------|
A|-7-7-7-7-7-7-7-7-7-7-7-7-7-7-7-7-7---------------------------|
E|-----------------------------------5-5-5-5-5-5-5-5-5-5-5-5---|

[Bridge]

G|----------------------------------------------------------------------------------------------|
D|----------------------------------------------------------------------------------------------|
A|-------------------------2-2-2-2-2-2-2-2-2-2-2------------------------------------------------|
E|-0-0-0-0-0-0-0-0-0-0-0-0-----------------------0-0-0-0-0-0-0-0-0-0-0-0-5-5-5-5-5-5-5-5-5-5-5--|


G|---------------------------------------------------------------------------|
D|---------------------------------------------------------------------------|
A|-7-7-7-7-7-7-7-7-2-2-2-2-2-2-2-2-4-4-4-4-4-4-4-----------------------------|
E|-----------------------------------------------5-5-5-5-5-5-5-5-------------|


G|---------------------------------------------------------------------------|
D|---------------------------------------------------------------------------|
A|-7-7-7-7-7-7-7-7-2-2-2-2-2-2-2-2-4-4-4-4-4-4-4-----------------------------|
E|-----------------------------------------------5-5-5-5-5-5-5-5-------------|


G|-------------------------------------------------|
D|-------------------------------------------------|
A|-------------------------------------------------|
E|-2-2-2-2-2-2-2-2-2-2-2-2-5-5-5-5-5-5-5-5-5-5-----|

[Outro]

G|--------------------------------------------------------------------------------|
D|--------------------------------------------------------------------------------|
A|-7-7-7-7-7-7-7-7-7-7-7---------------------4-4-4-4-4-4-4-4-4-7-7-7-7-7-7-7-7-7--|
E|-----------------------5-5-5-5-5-5-5-5-5-5--------------------------------------|

G|--------------------------------------------------------------------------------|
D|--------------------------------------------------------------------------------|
A|-7-7-7-7-7-7-7-7-7-7-7---------------------4-4-4-4-4-4-4-4-4-7-7-7-7-7-7-7-7-7--|
E|-----------------------5-5-5-5-5-5-5-5-5-5--------------------------------------|

G|-9-9-9-9-9-9-9-9-9-6-6-6-6-6-6-6-6-6-6-9----|
D|--------------------------------------------|
A|--------------------------------------------|
E|--------------------------------------------|

Suggest correction
Give kudos to tab author, rate the tab!
1 2 3 4 5
comments
print report bad tab
guest
You may want to rate the tab now too:
select rating
Wanna post a correction for this tab? Suggest correction