Oops, an error
Loading. Please wait.

Were All In Love Bass Tab

version 1
version 1

Whole song

Interactive

4 views 1 this week
no commentswrite comment
1 2 3 4 5
2 more votes to show rating
add to favorites
launch autoscroll
font size
0
reset
guitar tuner
Autoscroll
slow
fast
+/-
esc
set tempo
stop
Help us to improve Ultimate-Guitar.com Take our survey!
×
[Intro]

G|-------------------------------------------------------|--------------------------------------------------|
D|-------------------------------------------------------|--------------------------------------------------|
A|-2-2-2-2-2-2-2-2-2-2-2-2-2-2-0-0-0-0-0-0-0-0-0-0-0-0-0-|--------------------------2-2-2-2-2-2-2-2-2-5-5-7-|
E|-------------------------------------------------------|--3-3-3-3-3-3-3-3-3-3-3-3-------------------------|

[Verse]

G|-------------------------------------------------------|--------------------------------------------------|
D|-------------------------------------------------------|--------------------------------------------------|
A|-2-2-2-2-2-2-2-2-2-2-2-2-2-2-0-0-0-0-0-0-0-0-0-0-0-0-0-|--------------------------2-2-2-2-2-2-2-2-2-5-5-7-|
E|-------------------------------------------------------|--3-3-3-3-3-3-3-3-3-3-3-3-------------------------|

G|-------------------------------------------------------|--------------------------------------------|
D|-------------------------------------------------------|--------------------------------------------|
A|-2-2-2-2-2-2-2-2-2-2-2-2-4-4-0-0-0-0-0-0-0-0-0-0-0-0-0-|--------------------------2-2-2-2-2-2-2-2-2-|
E|-------------------------------------------------------|--3-3-3-3-3-3-3-3-3-3-3-3-------------------|

[Chorus]

G|----------------------------------|------------------------------------------|
D|----------------------------------|------------------------------------------|
A|-5--7-7-7-7-7-7-7-----------------|-5--7-7-7-7-7-7-7-------------------------|
E|------------------5-7-7-5-7-7-7-5-|------------------5-7-7-5-7-7-7-5---------|

G|----------------------------------|------------------------------------------|
D|----------------------------------|------------------------------------------|
A|-5--7-7-7-7-7-7-7-----------------|-5--7-7-7-7-7-7-7-------------------------|
E|------------------5-7-7-5-7-7-7-5-|------------------5-7-7-5-7-7-7-5---------|

G|-------------------------------------|
D|-------------------------------------|
A|-2-2-2-2-2-2-2-2-2-2-2-2-2-2---------|
E|-----------------------------5-3-0---|
 
[Verse]

G|-------------------------------------------------------|--------------------------------------------------|
D|-------------------------------------------------------|--------------------------------------------------|
A|-2-2-2-2-2-2-2-2-2-2-2-2-2-2-0-0-0-0-0-0-0-0-0-0-0-0-0-|--------------------------2-2-2-2-2-2-2-2-2-5-5-7-|
E|-------------------------------------------------------|--3-3-3-3-3-3-3-3-3-3-3-3-------------------------|

G|--------------------------------------------------------|--------------------------------------------|
D|-----------------------4-4-4-4-2------------------------|--------------------------------------------|
A|-2-2-2-2-2-2-2-2-2-2-2-----------2-0-0-0-0-0-0-0-0-0-0--|--------------------------2-2-2-2-2-2-2-2-2-|
E|--------------------------------------------------------|--3-3-3-3-3-3-3-3-3-3-3-3-------------------|

[Chorus]

G|----------------------------------|------------------------------------------|
D|----------------------------------|------------------------------------------|
A|-5--7-7-7-7-7-7-7-----------------|-5--7-7-7-7-7-7-7-------------------------|
E|------------------5-7-7-5-7-7-7-5-|------------------5-7-7-5-7-7-7-5---------|

G|----------------------------------|------------------------------------------|
D|----------------------------------|------------------------------------------|
A|-5--7-7-7-7-7-7-7-----------------|-5--7-7-7-7-7-7-7-------------------------|
E|------------------5-7-7-5-7-7-7-5-|------------------5-7-7-5-7-7-7-5---------|

G|-------------------------------------|
D|-------------------------------------|
A|-2-2-2-2-2-2-2-2-2-2-2-2-2-2---------|
E|-----------------------------5-3-0---|

[Bridge]

G|--------------------------------------------------------------------|
D|--------------------------------------------------------------------|
A|-3-3-3-3---------5-5-5-5---------2-2-2-2-2-2-2-2-2-2-2-2-2-2-2-2----|
E|---------3-3-3-3---------5-5-5-5------------------------------------|

G|--------------------------------------------------------------------|
D|-----------------------------------------------2-4-4-4-4-4-4-4-2-2--|
A|-3-3-3-3---------5-5-5-5---------2-2-2-2-2-2-2----------------------|
E|---------3-3-3-3---------5-5-5-5------------------------------------|

G|--------------------------------------------------------------------|
D|--------------------------------------------------------------------|
A|-3-3-3-3---------5-5-5-5---------2-2-2-2-2-2-2-2-2-2-2-2-2-2-2-2----|
E|---------3-3-3-3---------5-5-5-5------------------------------------|

G|--------------------------------------------------------------------|
D|-----------------------------------------------2-4-4-4-4-4-4-4-2-2--|
A|-3-3-3-3---------5-5-5-5---------2-2-2-2-2-2-2----------------------|
E|---------3-3-3-3---------5-5-5-5------------------------------------|

G|---------------------------------4-4-4-4-4-4-4-4-4-4-4-4-4-4--------|
D|--------------------------------------------------------------------|
A|-3-3-3-3---------5-5-5-5--------------------------------------------|
E|---------3-3-3-3---------5-5-5-5------------------------------------|

[Outro]

G|----------------------------------|------------------------------------------|
D|----------------------------------|------------------------------------------|
A|-5--7-7-7-7-7-7-7-----------------|-5--7-7-7-7-7-7-7-------------------------|
E|------------------5-7-7-5-7-7-7-5-|------------------5-7-7-5-7-7-7-5---------|

G|----------------------------------|------------------------------------------|
D|----------------------------------|------------------------------------------|
A|-5--7-7-7-7-7-7-7-----------------|-5--7-7-7-7-7-7-7-------------------------|
E|------------------5-7-7-5-7-7-7-5-|------------------5-7-7-5-7-7-7-5---------|

G|----------------------------------|------------------------------------------|
D|----------------------------------|------------------------------------------|
A|-5--7-7-7-7-7-7-7-----------------|-5--7-7-7-7-7-7-7-------------------------|
E|------------------5-7-7-5-7-7-7-5-|------------------5-7-7-5-7-7-7-5---------|

G|----------------------------------|------------------------------------------|
D|----------------------------------|------------------------------------------|
A|-5--7-7-7-7-7-7-7-----------------|-5--7-7-7-7-7-7-7-------------------------|
E|------------------5-7-7-5-7-7-7-5-|------------------5-7-7-5-7-7-7-5---------|

G|----------------------------------|------------------------------------------|
D|----------------------------------|------------------------------------------|
A|-5--7-7-7-7-7-7-7-----------------|-5--7-7-7-7-7-7-7-------------------------|
E|------------------5-7-7-5-7-7-7-5-|------------------5-7-7-5-7-7-7-5---------|

G|----------------------------------|------------------------------------------|
D|----------------------------------|------------------7-9-9-7-9-9-9-7---------|
A|-5--7-7-7-7-7-7-7-----------------|-5--7-7-7-7-7-7-7-------------------------|
E|------------------5-7-7-5-7-7-7-5-|------------------------------------------|


Suggest correction
Give kudos to tab author, rate the tab!
1 2 3 4 5
comments
print report bad tab
guest
You may want to rate the tab now too:
select rating
Wanna post a correction for this tab? Suggest correction