Oops, an error
Loading. Please wait.

A National Acrobat Bass

version 1
version 1

Whole song

Interactive

11,970 views 18 this week
no commentswrite comment
1 2 3 4 5
x 5
add to favorites
launch autoscroll
font size
0
reset
guitar tuner
backing track
0:00
0:00
×
Best way to learn
"A National Acrobat"
Autoscroll
slow
fast
+/-
esc
set tempo
stop
A National Acrobat - Bass
Black Sabbath - SBS


Tune-down 1 1/2 steps low to high(C# F# B E)

        ||------------------------------------------------------------|
        ||--------------------------------------7h9p7-----------------|
        ||-5h7-7-7--7-5h7-5h7-10-9--9-5h7-7-7-5-------5---5---5-5h7-7-|
        ||----------------------------------------------7---7---------|

                                                           I am the
        -------------------------------------------------||-----------|
        --------------------------------7h9p7------------||-2---2-5---|
        -7--7-5h7-5h7-10-9--9-5h7-7-7-5-------5---5---5--||-----------|
        ----------------------------------------7---7----||-----------|

        world that hides...     Destruction of the empty...        You
        -------------------7-9-|-----------------------------||-------|
        5-------7------7-9-----|---------------5----5-7----7-||-------|
        --5---5----5/7---------|-3----3-2----2----5------7---||---5h7-|
        -----------------------|----3------2-----------------||-7-----|

        gotta believe me                                 I'm talkin to
        ---------------------------------------|-----------------------|
        ------------5--------------------------|-----------------------|
        ----5h7-5h7---7-5---5h7----------------|-------5h7-----5h7-5h7-|
        --7---------------7--------------------|-5-6-7-------7---------|

        you...                          4x
        ------------------------------||----------------------------||
        -5----------------------------||-------------8\7---7-5---5--||
        ---7-5---5h7------------------||-7---7-5---5----------------||
        -------7----------------------||----------------------------||
                                    2x
        ---------------------------|-----------------------------------|
        ---------------------------|-----------------------------------|
        ---------------------------|-5h7-7-7-7-7-7-7-5h7-7-7-7-7-7-7-5-|
        -7-7-7-7-7-7-7-7-7-7-7-7-7-|-----------------------------------|

        ---------------------------------------------------------------|
        -------------------------------5h7-7-7-7-7-7-7-5h7-7-7-7-7-7-7-|
        h7-7-7-7-7-7-7-5h7-7-7-7-7-7-7---------------------------------|
        ---------------------------------------------------------------|
                                           2x
        ---------------------------------||----------------------------|
        -5h7-7-7-7-7-7-7-5h7-7-7-7-7-7-7-||-7h9--9-7h9-7---------------|
        ---------------------------------||--------------9-7-5--5-5--5-|
        ---------------------------------||----------------------------|

        ------------------------------------|-------------------------|
        -----7h9--9-7h9-7-------------------|-------------------------|
        -4-5--------------9-7-5--5-5--5-4-5-|-------------------------|
        ------------------------------------|--7\--------------7-7\---|

        ---------------------------------------------------------------|
        ---------------------------------------------------------------|
        ---------------------------------------------------------------|
        -----7-7\----------7-7\----------7\-------------7\----------7\-|
                                    2x
        --------------------------|------------------------------------|
        --------------------------|-7-7-7-7-7-7------------------------|
        --------------------------|-------------5-5-5-5-5-5/7--7-7-7-7-|
        -----------7\-------------|------------------------------------|

        ------------------------------------------------|-------------|
        -------7-7-7-7-7-7------------------------------|-------------|
        -7-7/9-------------5-5-5-5-5-5/7--7-7-7-7-7-7/9-|-5--4--5--4--|
        ------------------------------------------------|-------------|

        -----------------------------||-------------------------------|
        -----------------------------||-------------------------------|
        5--4--5--4--5--4--5--4--5--4-||-2-2-3-3-4-4-5-5-6-6-7-7-8-8-9-|
        -----------------------------||-------------------------------|

        ------------------||
        ------------------|
        -9-10-10-11-11-12-||
        ------------------||


************************************

| h  Hammer-on
| p  Pull-off
| /  Slide up
| \  Slide down
| x  Dead note

************************************
Suggest correction
comments
print report bad tab
guest
You may want to rate the tab now too:
select rating
Wanna post a correction for this tab? Suggest correction