Oops, an error
Loading. Please wait.

A National Acrobat Tab

version 2
version 2

Whole song

Interactive

50,217 views 189 this week
3 commentsread comments
1 2 3 4 5
accurate
x 11
add to favorites
launch autoscroll
font size
0
reset
how to read this tab
guitar tuner
Autoscroll
slow
fast
+/-
esc
set tempo
stop
Help us to improve Ultimate-Guitar.com Take our survey!
×
Author
[Intro Fig.1]

Guitar 1
e|----------------------------------------------------|
B|----------------------------------------------------|
G|----------------------------------------------------|
D|-------------------2-1~-------------6-4--------2-1~-|
A|-2-4-4-4~--2-4-2-4-------2-4-4-4-4------2--0-2------| 
E|----------------------------------------------------|(x4)

  Guitar 2 
e|-----------------------------------------------------|
B|-------------------9-7~-------------10-9-------------|
G|-8-9-9-9~--8-9-8-9-------8-9-9-9-9-------8----8-9-8~-|
D|--------------------------------------------9--------|
A|-----------------------------------------------------| 
E|-----------------------------------------------------|(x2)


[Verse Fig.2]

e|-------------------------|
B|-------------------------|
G|-6--6--9--9--------------|
D|-6--6--9--9--9--9--4--4--|
A|-4--4--7--7--9--9--4--4--|
E|-------------7--7--2--2--| (then play Fig.1 once) (x2)

e|-------------------------|
B|-------------------------|
G|-------------------------|
D|-7--7--6--6--2--2--4--4--|
A|-7--7--6--6--2--2--4--4--|
E|-5--5--4--4--0--0--2--2--| (then play Fig.1 once) (x2)


  Fig.3
  (This is played over and over again through 
                      vocals and a guitar solo)
e|---------------------------------------------|
B|---------------------------------------------|
G|-----------------------------6\----------10\-|
D|---------------2-------------6\----------11\-|
A|-2-4---2-4-2-4---4-2---2-4-------4-4-4-4-----|
E|---------------------4-----------------------|
                                    PM. . . 


  Fig.4
  Two Guitars
e|--------------|    |------------------------------------|
B|--------------|    |------------------------------------|
G|-4h6~-4~------|    |------------------------------------|
D|---------4~-2~|    |-6-6-6-6--6-6-6-6--6-6-6-6--6-6-6-6-|
A|-2h4~-2~------|(x3)|-6-6-6-6--6-6-6-6--6-6-6-6--6-6-6-6-|
E|---------2~-0-|    |-4-4-4-4--4-4-4-4--4-4-4-4--4-4-4-4-|
                        PM. . .  . . . .  . . . .  . . . .


  Fig.5
e|----------------------------------------------|
B|----------------------------------------------|
G|------------------------6---------------------|
D|-----6-6/8-6------6-6/8----------6-6/8-6------|
A|-8-9----------8-9---------9--8-9---------9-8--| 
E|----------------------------------------------|(x2)

e|----------------------------------------------|
B|------------------------7---------------------|
G|-----6-6/8-6------6-6/8----------6-6/8-6------|
D|-8-9----------8-9---------9--8-9---------9-8--|
A|----------------------------------------------|
E|----------------------------------------------|

e|----------------------------------------------|
B|----------------------------------------------|
G|------------------------6---------------------|
D|-----6-6/8-6------6-6/8----------6-6/8-6------|
A|-8-9----------8-9---------9--8-9---------9-8--|
E|----------------------------------------------|


  Fig.6
e|-------------|
B|-------------|
G|------6---4--|
D|-6----6---4--|
A|-6----4---2--| 
E|-4-----------|(x4)


  Fig.7
e|-----------------------------------------------------|
B|-----------------------------------------------------|
G|-------------------------------------6b8-4---6b8-4---|
D|---6~---4-6---4-6--6-6p4------6~---4-------6-------6-|
A|------6-----6------------6-------6-------------------| 
E|-4--------------------------4------------------------|(x2)


  Fig.8
e|-------------------------------|
B|-------------------------------|
G|-------------------------------|
D|-4-6-6-6-6-6-4-6-6-6-4---------|
A|-----------------------6-4-----| 
E|---------------------------6-4-|(x8)


  Fig.9
e|-----------------|
B|-----------------|
G|-----------------|
D|-4-4-4-4-4-4-4-4-|
A|-2-1-2-1-2-1-2-1-|
E|-----------------|

And I can NOT for the life of me figure out that little widdly ending bit.
That's all the main rhythm bits and riffy things anyway.
I would've tabbed out the solo but I don't think it's all that accurate.
The song's more or less all there I think.


************************************

| h  Hammer-on
| p  Pull-off
| b  Bend
| /  Slide up
| \  Slide down
| ~  Vibrato
| PM Palm Mute   

************************************
Suggest correction
comments
print report bad tab
3 comments total.
0 reply
armstrong26491 40 wrote on August 23 2007, 11:53 am

BTW the guitar is detuned 3 semitones
otherwise not too bad

0 reply
Quinlan 50 wrote on May 11 2013, 01:17 am

I thought this particular song was in D standard? Although Sabbath's "classic" tuning is C#...

-1 reply
jimmyvoltron 10 wrote on August 27 2015, 05:52 pm

This is a decent-enough transcription of the song to standard tuning. But the guy who posted this should have mentioned the tuning. He didn't, and I can only conclude it's because he's a ****ing idiot.

guest
You may want to rate the tab now too:
select rating
Wanna post a correction for this tab? Suggest correction