Oops, an error
Loading. Please wait.

After All The Dead Bass Tab

version 2
version 2

Whole song

Interactive

589 views 1 this week
no commentswrite comment
1 2 3 4 5
1 last vote to show rating
add to favorites
launch autoscroll
font size
0
reset
guitar tuner
Autoscroll
slow
fast
+/-
esc
set tempo
stop
Help us to improve Ultimate-Guitar.com Take our survey!
×
Author
Difficulty
Tuning
intermediate
D# G# C# F# A# D#
Title: After All (The Dead)
Artist: Black Sabbath
Album: Dehumanizer
Composer: Butler / Dio e Iommi.
Bassist: Geezer Butler
Tabbed by: FLBatista


Intro (x2):

Gb|----------------------------------------------------------------------------|
Db|----------------------------------------------------------------------------|
Ab|---14-13---15--14----14-13---17-16-15-14---14-13---15--14--15-14-13---------|
Eb|-0-------0---------0-------0-------------0-------0------------------15--16--|


Verse (x4):

Gb|-------------------------|
Db|-------------------------|
Ab|--------------------3----|
Eb|-0~-----------3-2-1------|


Riff (x2):

Gb|---------------------------|
Db|---------------------------|
Ab|-7-----6-----7-----6-5-----|
Eb|-----------------------3-4-|


Play:
- Verse (x4)


Verse 2:

Gb|----------------------------------------------------------------|
Db|----------------------------------------------------------------|
Ab|----------------------------------------------------5-----3-----|
Eb|-0~-----------0~-----------0~-----------0~------0-3---0-1---3-0-|


Gb|---------------------------------|X4
Db|---------------------------------|
Ab|---------------------5-----3-----|
Eb|-7-0-0-6-0-0-5-0-0-3---0-1---3-0-|


Verse 3:

Gb|------------------------------------------------------------------|
Db|------------------------------------------------------------------|
Ab|---------------------------------------------4----4--4-------7\---|
Eb|-4----4--4----4--4--2-4-5----5--5----5--5-----------------4-------|


Gb|---------------------------------------------------------------------------|
Db|--------------------9------------------------------------------------------|
Ab|----------------7-9---9-7-9------------------------------------------------|
Eb|-5--5-5--5-7----------------4----4--4----4--4--2-4-5----5--5----5--5-7-5-0-|


Gb|-------------------------------|
Db|-------------------------------|
Ab|-4----4--4----4--4--4-4-2(16x)-|
Eb|-------------------------------|


Chorus:

Gb|-----------------------------------------------------------------|
Db|-----------------------------------------------------------------|
Ab|------------3~-----------2---1--------------1~-----------2---1---|
Eb|-0~----------------0-2-3---3---2-0~----------------0-2-3---3---2-|


Riff 1 (x2):

Gb|----------------------------------|
Db|----------------------------------|
Ab|------------------------5----5-4--|
Eb|-0----3-2-1~------0-2-3----3------|


Verse Variation:

Gb|------------------------------------------------------------------|
Db|------------------------------------------------------------------|
Ab|--------------------3-----------5-7--------------------------3----|
Eb|-0~-----------3-2-1------0----------0-0-7-0-6-5-0~-----3-2-1------|


Verse 2 Variation

Gb|---------------------------------|X8
Db|---------------------------------|
Ab|---------------------5-----3-----|
Eb|-7-0-0-6-0-0-5-0-0-3---0-1---3-0-|


Verse:

Gb|--------------------------------------------------------------------------|
Db|------------------------------------7-------------------------------------|
Ab|--------------------------------5-7----7--5-7-----4----4--4-------7-7-6-4-|
Eb|-4----4--4----4--4--2-4-5----5----------------7-5--------------4----------|


Gb|--------------------|
Db|--------------------|
Ab|--------------------|
Eb|-5--5-5--5-7--7(8x)-|


Play:
- Chorus (x4)


The End in The Live Version:

Gb|-----------------------------------------------------------------------|
Db|-----------------------------------------------------------------------|
Ab|------------------------5----5-4-----------------------------5----5-4--|
Eb|-0----3-2-1~------0-2-3----3----------0----3-2-1~------0-2-3----3------|


Gb|------------------|
Db|------------------|
Ab|------------------|
Eb|-3~------0~-------|


LEG:
~ : Let Ring
/ : Slide Up
\ : Slide Down
Suggest correction
Give kudos to tab author, rate the tab!
1 2 3 4 5
comments
print report bad tab
guest
You may want to rate the tab now too:
select rating
Wanna post a correction for this tab? Suggest correction