Oops, an error
Loading. Please wait.

After Forever Tab

version 2
version 2

Whole song

Interactive

1,574 views 6 this week
no commentswrite comment
1 2 3 4 5
2 more votes to show rating
add to favorites
launch autoscroll
font size
0
reset
how to read this tab
guitar tuner
Autoscroll
slow
fast
+/-
esc
set tempo
stop
Help us to improve Ultimate-Guitar.com Take our survey!
×
Author
This song is like a whole step down, but this tab is in standard, with a capo on the third fret.

Capo III

Intro
------------------------|-------------------|
------------------------|-------------------|
------------------------|-------------------|
------------------------|-------------------|
-14-12-10-12-10h12p10-5-|-10-15-14-12-10-10-|
--3--3--3--3--3--3--3-3-|--3--3--3--3--3--3-|

-------------------|-------------------|
-------------------|-------------------|
-------------------|-------------------|
-------------------|-------------------|
-10-10-10-12-12\-5-|-10-10-10-10-10-10-|
--3--3--3--3--3--3-|--3--3--3--3--3--3-|

Verse
-------------------------------|
-------------------------------|
-------------------------------|
-5/7-7-7-7\-7-7/10-10-10-10\-5-|
-3/5-5-5-5\-5-5/-8--8--8--8\-3-|
-------------------------------|

--------------------------------|
--------------------------------|
--------------------------------|
-5/7-7-7-7\-7-10-10-10-10-10\-5-|
-3/5-5-5-5\-5--8--8--8--8--8\-3-|
--------------------------------|

Bridge
yeah, there's some kind of hammer-on thing here, but I couldn't really figure it out, so...
----------------|-----------------|
-10-10-10-10-10-|-----------------|
-10-10-10-10-10-|-8-8-13\10-10-10-|
-10-10-10-10-10-|-8-8-13\10-10-10-|
--8--8--8--8--8-|-6-6-11\-8--8--8-|
----------------|-----------------|

----------------|-------------------|
----------------|-------------------|
-12-12-12-12-12-|-10-10-15\12-12-12-|
-12-12-12-12-12-|-10-10-15\12-12-12-|
-10-10-10-10-10-|--8--8-13\10-10-10-|
----------------|-------------------|

Pre-Solo
-------------------------|----------------------|
-------------------------|----------------------|
-------------------------|----------------------|
-------------------------|----------------------|
----10-10----------------|----10-10-------------|
-3-3-----8h9p8\6-8-6b.25-|-3-3-----8h9p8\6-8~~~-|

Solo
listen to the solo to get the rhythm down
----|---------------|--------------------|
----|---------------|--------------------|
----|---------------|---------5b.25------|
----|------------7--|------5-7-----7p5-7-|
----|-------5-6-7-5-|-5-6/7--------------|
-3/-|-/5-5-8--------|--------------------|

---------------------|--------5---5-5--|
---------------------|-------5-5-8---8-|
---------------------|----5-7----------|
---------7---------5-|-6-7-------------|
----5-6-7-5-5-5-6-7--|-----------------|
-5-8-----------------|-----------------|

----------------------5-----5-|
-5-----------8-8-------8p5-5--|
--7brp5-6-6/9---7-5-7b--------|
------------------------------|
------------------------------|
------------------------------|

-5-5----------------------|---------------------------|
--5-8b-8r\-5-5-8p5--------|-5-8--5-8--5-8--5-8--5-8---|
----------7-------7p5-5-7-|--5-7b---7b---7b---7b---7b-|
---------------------7----|---------------------------|
--------------------------|---------------------------|
--------------------------|---------------------------|

-------------------------|
-5-8--5-8--5-8-----------|
----7b---7b---7brp5-7-5/-|
---------------------7---|
-------------------------|
-------------------------|

Have fun!
Suggest correction
Give kudos to tab author, rate the tab!
1 2 3 4 5
comments
print report bad tab
guest
You may want to rate the tab now too:
select rating
Wanna post a correction for this tab? Suggest correction