Oops, an error
Loading. Please wait.

Behind The Wall Of Sleep Bass Tab

version 2
version 2

Whole song

Interactive

2,227 views 3 this week
no commentswrite comment
1 2 3 4 5
1 last vote to show rating
add to favorites
launch autoscroll
font size
0
reset
guitar tuner
Autoscroll
slow
fast
+/-
esc
set tempo
stop
Help us to improve Ultimate-Guitar.com Take our survey!
×
Black Sabbath
Wasp / Behind the Wall of Sleep   
basic bass tab

  intro
|------------------|------------------|
|-----------------/|9---9-9---9-9\----|
|----2--------2----|------------------|
|0---------0-------|------------------|

|------------------|------------------|
|------------------|---12-14^-14-12---|
|------------------|14----------------|
|0---7-----0-7-----|------------------|

|------------------|------------7-----|
|----9-------9-----|9---7-----.-------|
|------------------|------9-----------|
|7---------7-------|------------------|

|------------------|------------------||
|------------------|9---7-------------||
|------------------|------9---7-5-----||
|0---7-----0-7-----|------------------||

|------------------|
|------------------|*
|------------------|*
|7--7--------------|


  verse
|-----------------^-------^------|--------------------------------|
|----------------5-7-5---5-7-----|7-------7-------7-.-7---5-------|
|0-------3-----------------------|------0-------0-------.---7-5\--|
|--------------------------------|--------------------------------|

|-----------------^--------------|--------------------------------|
|----------------5-7-5----^------|--------------------------------|*
|0-------3---------------5-7-----|7-------7-------7-7-7-.-7-7-7/--|*
|--------------------------------|------0-------0-----------------|

|------------------------|----------------^---------------|
|------------------------|--------------.-7--7--7---7-7/--|
|5---.---5-----5-565-----|--------------------------------|
|--------------------8---|5-------------------------------|

  bridge
|--------------------------------|--------------------------------|
|--------------------------------|--------------------7-9-9-9-9---|*
|------------5---5-7---5-7-5-----|----------------7-9-------------|*
|7---7-7-7-----7-------------7---|7---7-7-7---5-.-----------------|

  solo
|--------------------------------|
|--------------------------------|*
|----------------5---5---5-7-5---|*
|7-----7-7-----7---7---.---------|

|----------------------------7---|--------------------------------|
|----------------9-9-9---7-9-----|9-----.-9-----9-7-----7---------|
|--------------9-------9---------|------------------9-----9-7-5---|
|7-----7-7-----------------------|--------------------------------|



standard tuning (EADG)

| /  slide up
| \  slide down

| .   incidental note (usually open string)
| ^   pre-struck note (hammer-on, pull-off)
| =   rest

| X   10
| E   11
| T   12
| H   13
| F   14


display in fixed-width font
one space ("-") = 1/16 note

tabbed by
spaceyhippie
dudeman.net/jam

Suggest correction
Give kudos to tab author, rate the tab!
1 2 3 4 5
comments
print report bad tab
guest
You may want to rate the tab now too:
select rating
Wanna post a correction for this tab? Suggest correction