Oops, an error
Loading. Please wait.

Black Sabbath Tab

version 1
version 1

Album

Whole song

Interactive

77,741 views 15 this week
6 commentsread comments
1 2 3 4 5
x 8
add to favorites
launch autoscroll
font size
0
reset
how to read this tab
guitar tuner
Autoscroll
slow
fast
+/-
esc
set tempo
stop
Help us to improve Ultimate-Guitar.com Take our survey!
×
Author
Yes, here it is! The album tab from Black Sabbath's debut, Black Sabbath!

[Note] This is by no means my own work...rather a collection of tabs from various other 
Kudos to the original 'tabbers'.

Track 1: "Black Sabbath"
e|------------------------|-------------|--|
B|------------------------|-------------|--|
G|------------------------|-------------|--|
D|-----5------------------|------5------|--|
A|--5----45454545454545/\-|---5----4----|--|
E|--3---------------------|---3---------|--|

e|-------------------------|--|
B|-------------------------|--|
G|-------------------------|--|
D|-------------------------|--|
A|---------3-5-6-3-5---3-5-|--|
E|-3-3-3-6-----------6-----|--|

[Solo]
e|----------------------|------------------------------------------3--|
B|----------------------|-----------------------3-----3~~~---3-----3--|
G|----------------------|------------3~~~-------5^-----------5^-------|
D|-5p3---5-----(5)^-5-5-|-3~~----3h5----------------------------------|
A|-----5----------------|---------------------------------------------|
E|----------------------|---------------------------------------------|

e|-----------------|-------15----15--x--|----------------18^---18^---|
B|--3--6---8--10---|-----15---18^-------|-18^--18^----15-------------|
G|--5^-8^-10^-12^--|--17^---------------|----------------------------|
D|-----------------|--------------------|----------------------------|
A|-----------------|--------------------|----------------------------|
E|-----------------|--------------------|----------------------------|

e|--15-18p15--18p15---|-18^-15h18p15------15-15-----15-----------|
B|----------18-----18-|-------------18-18-------18^--------------|
G|--------------------|------------------------------------------|
D|--------------------|------------------------------------------|
A|--------------------|------------------------------------------|
E|--------------------|------------------------------------------|

e|--15------------15-----15-----15-----15-----15-----15-----15-------|
B|-----18-15----15-----15-----15-----15-----15-----15-----15--15~~---|
G|-----------17^----17^----17^----17^----17^----17^----17^-----------|
D|-------------------------------------------------------------------|
A|-------------------------------------------------------------------|
E|-------------------------------------------------------------------|

e|----------15---------|----------------18^^^18p15---18^----15h18p15-----|
B|--------15--------15-|-18^^----18^^--------------------------------18--|
G|--14-17^----17-18----|-----15------15-----------(17)-------------------|
D|---------------------|-------------------------------------------------|
A|---------------------|-------------------------------------------------|
E|---------------------|-------------------------------------------------|

e|-15h18p15--18p15--15h18p15h18-15h18p15h18-15h18p15h18-15h18p15h18-18^--|
B|---------18-----18-----------------------------------------------------|
G|-----------------------------------------------------------------------|
D|-----------------------------------------------------------------------|
A|-----------------------------------------------------------------------|
E|-----------------------------------------------------------------------|

e|-18^^^--18p15---------15-15--------------|------15-----------------------|
B|-------------18-18-18^------18-15--------|----15--18p15------------------|
G|---------------------------------17-15^--|-17^---------17-15^------------|
D|-----------------------------------------|---------------------17p15h17--|
A|-----------------------------------------|-------------------------------|
E|-----------------------------------------|-------------------------------|

e|---------------15-----15-----15----------------------|
B|-------------15-----15-----15---18^-18^-18^----------|
G|-------15-17^----17^----17^--------------------------|
D|--15h17----------------------------------------------|
A|-----------------------------------------------------|
E|-----------------------------------------------------|

 [Ending] with Wah:
e|-3----------------------------3---------------------------|
B|-3----------------------------3---------------------------|
G|-0--------------3-------------0---------------3-----------|
D|-0--------------3-------------0---------------3-----------|
A|----------------1-----------------------------1-----------|
E|-3--------------1-------------3---------------1-----------|

e|----------------------------------------------------------|
B|----------------------------------------------------------|
G|-5-----5-5-5-5--5-5-5--3---3-3-3-3---3-3-3---5------------|
D|-5-----5-5-5-5--5-5-5--3---3-3-3-3---3-3-3---5------------|
A|-5-----5-5-5-5--5-5-5--1---1-1-1-1---1-1-1---5------------|
E|-3-----3-3-3-3--3-3-3--1---1-1-1-1---1-1-1---3------------|

Track 2:
"The Wizard"
e|---------------------------------------------|
B|---------------------5~-5~-------------------|
G|---------------------5~-5~-------------------|
D|-7---/10---7--------------------5------------|
A|-7---/10---7----------------5h7---7-5p3------|
E|-5---/8----5----------------------------5p3--|

[Solo]
e|--------------------------------------------------------------|
B|--------------------------------------------------------------|
G|-----------------------------------------------5--------------|
D|----------------------------5-5h7----7p5---5h7---7--7p5---5h7-|
A|3h5-3h5p3h5-3h5-3h5p3h5-5h7--------------7--------------7-----|
E|--------------------------------------------------------------|

e|----------------------------------------------------------|
B|----5-8---------------------------------------------------|
G|-7^-----7^-^p5-7p5---------------------5------------------|
D|-------------------7-5h7--------5--5h7----7p5-----5h7-----|
A|----------------------------5h7----------------7----------|
E|----------------------------------------------------------|

e|----------------||--------||---------||---------|
B|----------------||--------||-trill---||---------|
G|----------------||-5~~~~~-||---------||--5~~~~--|
D|-7--7------8--7-||--------||-5h7~~~~-||---------|
A|-7--7------8--7-||--------||---------||---------|
E|-5--5------6--5-||--------||---------||---------|

[Solo]
e|--------------------------------------------5-8p5-8p5-----|
B|------------------------------------------------------8p5-|
G|--trill--------------------------------5h7----------------|
D|---------------5h7p5---5h7---/---7p5-7--------------------|
A|-3-(5)~~---5h7-------7------------------------------------|
E|----------------------------------------------------------|

e|--------------------------5-------------------------------|
B|-----8p5----------------5----8-5--------------------------|
G|-7p5-----------------7^----------^7p5h7-7p5---5--7^--7^~--|
D|--------------------------------------------7-------------|
A|----------------------------------------------------------|
E|----------------------------------------------------------|

e|------5---------------------------------------------------|
B|----5----8-5----------------------------------------------|
G|-7^----------^7p5h7-7p5----5--------------5---------------|
D|------------------------7------7p5----5h7---7p5---5h7~~~--|
A|-----------------------------------7------------7---------|
E|----------------------------------------------------------|

e|------------------------------------------|
B|------------------------------------------|
G|-------------------------5----------------|
D|-----5------------5--5h7----7p5----7--7---|
A|-5h7----5--3--5/7---------------7---------|
E|------------------------------------------|

e|----------------------------------------------------------------------------------|
B|-----------------5~-5~------------------5-5-----------------5-5-------------------|
G|-----------------5~-5~------------------5-5-----------------5-5-------------------|
D|-7---/10---7----------------5-------------------5-------------------5-------------|
A|-7---/10---7------------5h7---7-5p3---------5h7---7-5p3---------5h7---7-5p3-------|
E|-5---/8----5------------------------5p3-----------------5p3-----------------5p3-5-|

Track 3:
"Behind The Wall of Sleep"

e|------------------------------------------------------------------|
B|------------------------------------------------------------------|
G|----8--8-8-8--------7--7-7-7----8--8-8-8--------7--7-7-7----------|
D|----9--9-9-9--------7--7-7-7----9--9-9-9--------7--7-7-7----------|
A|--9-9--9-9-9---(7)--7--7-7-7--9-9--9-9-9---(7)--7--7-7-7----------|
E|--7------------(7)------------7------------(7)--------------------|

e|------------------------------------------------------------------|
B|------------------------------------------------------------------|
G|-----------7-7-7p6-----------------------------------------(X 2)--|
D|--9----9-----------9-9p7----7-------9----9------7-----------------|
A|--9----9-----------------9-----9----9----9--7h9---9\7-7-7p5---5---|
E|--7----7----------------------------7----7------------------7-----|

[Verse]
e|------------------------------------------------------------------|
B|------------------------------------------------------------------|
G|------------------------------------------------------------------|
D|------5h7p5-5h7-----------5h7p5------(X 2)------------------------|
A|--------------------------------5h7-------------------------------|
E|--5-8-----------------5-8-----------------------------------------|

e|------------------------|
B|------------------------|
G|------------------------|
D|------------------------|
A|-5--5----5h6p5----------|
E|-------8-------8-5------|

e|------------------------------7-----------|
B|------------------------------10^---------|
G|---------7~~~~~~~~~~~---------------------|
D|-7/9------------------7/9-----------------|
A|-7/9------------------7/9-----------------|
E|-5/7------------------5/7-----------------|

[Solo]
e|---------------7--------------------------------------------------|
B|-10^--10^--10^---10-7---7-10-7-7\-/---------10-10-12-12^-12^-12^--|
G|----------------------9----------------9/11-----------------------|
D|------------------------------------------------------------------|
A|------------------------------------------------------------------|
E|------------------------------------------------------------------|

e|-----------------7-----7----------------------------------|
B|12-10----------7---10^---10-7-----------------------------|
G|------11\9-7-9----------------9^p7-9p7--7-----------------|
D|--------------------------------------9---9p7-------7-----|
A|----------------------------------------------9-7h9-------|
E|----------------------------------------------------------|

e|-----7--------7--------------------------------------7----|
B|---7-----10^----10-7------------------10-----------7------|
G|-9^------------------9^p7-9-9^p7-9/11----11\9-7-9^--------|
D|----------------------------------------------------------|
A|----------------------------------------------------------|
E|----------------------------------------------------------|

e|----------------------------------------------------------|
B|-10p7--------------7-10p7---------------------------------|
G|------9-9p7---7-9^--------9-9p7---------------------------|
D|------------9-------------------9-9p7---7/9---------------|
A|--------------------------------------9-------------------|
E|----------------------------------------------------------|

e|----------------------------------------------------------|
B|-----------------------------------------7----------------|
G|----------------------------------------------------------|
D|-6/7\6/7\6/7\6/7\6-------------6h7p6h7p6---7/9------------|
A|-------------------9--9-9-9-------------------------------|
E|----------------------------------------------------------|
      back to first riff


Track 4:
"N.I.B."
e|------------------------------||-----------||-------------||---12-12--|
B|------------------------------||-10^--8~~--||-------------||---12-12--|
G|------------------------------||-----------||-------------||---12-12--|
D|------------------------------||-----------||----797979---||----------|
A|-14-14-12-14-17-16-14-14-12-14||-----------||-/7----------||----------|
E|-12-12-10-12-15-14-12-12-10-12||-----------||-------------||----------|


e|----------------------------------------------------|
B|--------------------------12--12--------------------|
G|--------------------------14^-14^-------------------|
D|----------------------------------------------------|
A|-------10-12-12p10----------------------------------|
E|-10h12-------------12-12----------------------------|

Your Love for me has just got to be real.
E5            D5          C5         B5

and so on...

[Solo 1]
e|----------------------------------------------------------------|
B|----------------------------------------------------------------|
G|------------------------4-4--4/7-7--7h9-9---9^-9^--9^^^-797--7--|
D|--5-454---5-454---4h5-7-----------------------------------------|
A|--------7-------7-----------------------------------------------|
E|----------------------------------------------------------------|

e|----------------------------------------------------|
B|------------8-10p8--8-10-10^p8-10---10^p8-10-8------|
G|-9-9-9-8/9--------9---------------9-----------------|
D|----------------------------------------------------|
A|----------------------------------------------------|
E|----------------------------------------------------|

e|----------------------------------------------------|
B|--10^p8-10-8-10^-10^----1-101810-8/(15)-------------|
G|----------------------------------------------------|
D|----------------------------------------------------|
A|----------------------------------------------------|
E|----------------------------------------------------|

e|----------------------------------------------------------12-12----------|
B|-------------------------------------------------------12------15^-15-12-|
G|---------------4-4--4/7--7/9-9--9/12-12--12h14-14^-----------------------|
D|-5-454---4h5h7-----------------------------------------------------------|
A|-------7-----------------------------------------------------------------|
E|-------------------------------------------------------------------------|

e|-15p12--15p12--15p12--15p12-15^---15-121512----12-----------12---|
B|------12-----12-----12----------------------15----15p12---12--15-|
G|-------------------------------------------------------14^-------|
D|-----------------------------------------------------------------|
A|-----------------------------------------------------------------|
E|-----------------------------------------------------------------|

e|------12-----------------------------------------------|
B|-15^----1512--12-15------------------------------------|
G|------------15-----14^-14^---14-121412----12-14^p12----|
D|---------------------------------------14--------------|
A|-------------------------------------------------------|
E|-------------------------------------------------------|

[Solo 2]
e|------------------------------------------------------------------|
B|------------------------------------------------------------------|
G|------------------------4-4--4/7-7--7h9-9---9^-9^-9^^^----797--7--|
D|--5-454---5-454---4h5-7-------------------------------------------|
A|--------7-------7-------------------------------------------------|
E|------------------------------------------------------------------|

e|-----------------------------10^-------------------------------|
B|-/8-8-8-/8-8-8-/8-8-8-/8-8-8--------10^--8--10p8---8-10-10^p8--|
G|-/9-9-9-/9-9-9-/9-9-9-/9-9-9---------------------9-------------|
D|---------------------------------------------------------------|
A|---------------------------------------------------------------|
E|---------------------------------------------------------------|

e|------------------------------------------12---------15^-15-15p12-----|
B|-10---8-10-10^^^^^^^p8--10p8h10-8-------12---15^^^-12------------15^--|
G|----9--------------------------------14^------------------------------|
D|----------------------------------------------------------------------|
A|----------------------------------------------------------------------|
E|----------------------------------------------------------------------|

e|---12---------12-------12-------12---------------------------------------|
B|-15--15-12--12--15-15^---15-12----15--15^---121412---12------------------|
G|----------14------------------14------------------14^--14-12-14p12-------|
D|-------------------------------------------------------------------------|
A|-------------------------------------------------------------------------|
E|-------------------------------------------------------------------------|

e|-------------12--------------------15p12--15p12-------------------|
B|----------12--------------------12------12-----12---and so on...--|
G|---12-14^-------14^--14^--14^^^-----------------------------------|
D|-14---------------------------------------------------------------|
A|------------------------------------------------------------------|
E|------------------------------------------------------------------|

e|-15^--15--121512------------------------------------|
B|-----------------15-15p12----12-15^p12----12--------|
G|--------------------------14-----------14-----------|
D|----------------------------------------------------|
A|----------------------------------------------------|
E|----------------------------------------------------|

e|--------------------------------------------------------|
B|--------------------------------------------------------|
G|--9------------12-14-^14p12-14p12-12-12\9-7h9--7--------|
D|--9------12-14-----------------------------------9------|
A|--7------------------------------------------------7\6--|
E|--------------------------------------------------------|

Track 5:
"Evil Woman"
e|--------------------------------------------|
B|----------------6~--------------------------|
G|-7-----------/5-----------8-7-8p7-----------|
D|-7-------3------------6-----------10----8---|
A|-5-------3------------6---------------------|
E|---------1------------4---------------------|

[Verse]
e|---------------||---------------||---------------|
B|---------------||---------------||---------------|
G|---------------||-7---9---------||---------------|
D|-3---5-- X 12 -||-7---9-- X 4 --||-3---5-- X 4 --|
A|-3---5---------||-5---7---------||-3---5---------|
E|-1---3---------||---------------||-1---3---------|

 "Evil woman don't you play..."
e|-------------------------------|
B|-------------------------------|
G|-------------------------------|
D|-5--5--3--3--6--6--8--8--------|
A|-5--5--3--3--6--6--8--8--------|
E|-3--3--1--1--4--4--6--6--------|

 Pre-solo:
e|----------------------------------------------------------|
B|----------------------------------------------------------|
G|----------------------------------------------------------|
D|----------------------------------------------------------|
A|----------------------------------------------------------|
E|-1-1-1-1-1-1-1-1-1-1-1-1-1-1-1-1-1-1-1-1-1-1-1-1-1-1-1-1--|

[Solo]
e|---------------------------------|-----12-------------12----15^-|
B|-3-5-5^--------------------------|-15^----15-12----12----15-----|
G|-3-5-5^--5--3--5p3---------------|--------------14^-------------|
D|-------------------5-5--\-- X 2 -|------------------------------|
A|---------------------------------|------------------------------|
E|---------------------------------|------------------------------|

e|-12-----------12-------12--------------12--------------|
B|----15-----12----15-12----15p12-----12----15p12--------|
G|-------14^----------------------14^-------------14-12~-|
D|-------------------------------------------------------|
A|-------------------------------------------------------|
E|-------------------------------------------------------|

e|--------12-15p12--------------------12---------------|
B|-----12----------15-15p12--------12----15p12---------|
G|-14^----------------------14-14^-------------14-12~--|
D|-----------------------------------------------------|
A|-----------------------------------------------------|
E|-----------------------------------------------------|

e|----------------------------12------12-----12------|
B|----------------------12h15-------12-----12---15^--|
G|----------------12-14^---------14^----14^----------|
D|-14p12----12h14------------------------------------|
A|-------14------------------------------------------|
E|---------------------------------------------------|

e|-12------------12---------------------12------------------|
B|----15-12----12---15p12-------------12---15p12------------|
G|----------14^-----------14-12----14^-----------14-12------|
D|------------------------------14--------------------------|
A|----------------------------------------------------------|
E|----------------------------------------------------------|

Track 6 and 7:
"Sleeping Village/ The Warning"
e|-----------------------------------------------0--------|
B|--------------------------------------------0-----------|
G|-----------------0-----------------------0--------------|
D|--------4-----4-----4-----------4-----4-----------------|
A|-----7-----7-----------7-----7-----7--------------------|
E|--0-----------------------0-----------------------------|

e|-----------------------------|--------------------------|
B|-----------------------------|--------------------------|
G|--------------------------/9-|--------------------------|
D|----------7-----7-9p7---7----|---------7-----7-9^-7-----|
A|------------7/9-------9------|-----------7/9------------|
E|--3/5-3/5--------------------|-3/5-3/5------------------|

e|------------------------|---------------------------------|
B|------------------------|---------------------------------|
G|------------------------|---------------------------------|
D|-----7--5--4h5p4--------|-----7--5--4h5p4-----------------|
A|--0---------------5-/-7-|--0--------------5/7-------------|
E|------------------------|---------------------------------|

e|---------------------------|----------------------------|
B|---------------------------|----------------------------|
G|---------------------------|--10~~~~--------------------|
D|--12-------7-------10------|----------12----------------|
A|--12-------7-------10------|----------------------------|
E|--10-------5--------8------|----------------------------|

[Solo 1]
e|----------------|---------------|----10----10------10----------|
B|----------------|---------------|----------------10---13-13^---|
G|----------------|----------10~~-|-12^---12^---12^--------------|
D|--12p10---10-12-|-12p10h12------|------------------------------|
A|-------12-------|---------------|------------------------------|
E|----------------|---------------|------------------------------|

e|-10------------|-----10--|-----13^-13-|-101310------10-|-------10----|
B|---13-101210---|-10------|--10--------|-------13-13^---|-13^~-----13-|
G|------------12-|---------|------------|----------------|-------------|
D|---------------|---------|------------|----------------|-------------|
A|---------------|---------|------------|----------------|-------------|
E|---------------|---------|------------|----------------|-------------|

e|-----------------|---------------------|---------------|-----------------|
B|-101210-------10-|-13p10---------------|---------------|-----------------|
G|-------12-12^----|------12p10-12p10----|---------------|-10--------------|
D|-----------------|------------------12-|-12p10---10-12-|----12-12p10-----|
A|-----------------|---------------------|------12-------|-------------12--|
E|-----------------|---------------------|---------------|-----------------|

e|--------------|-------------------|----------------|--------------|
B|--------------|-------------------|----------------|--------------|
G|--------------|-------------------|-10-10----------|-------10-10--|
D|-----12p10----|-12p10----12p10----|-------12p10----|-10h12--------|
A|-----------12-|-------12-------12-|-------------12-|--------------|
E|--------------|-------------------|----------------|--------------|

e|------------|-------------------|------------------|-----------------|
B|---------10-|-13p10----13p10----|-13p10---13p10----|-13p10-10-10-10--|
G|-----12^----|------12^------12^-|------12^-----12^-|-----------------|
D|------------|-------------------|------------------|-----------------|
A|------------|-------------------|------------------|-----------------|
E|------------|-------------------|------------------|-----------------|

e|------------------|-------10----|----------|-----13^-13-|
B|--13p10-----------|----------10-|-13-13^---|--10--------|
G|-------12-12p10---|-12^---------|----------|------------|
D|---------------12-|-------------|----------|------------|
A|------------------|-------------|----------|------------|
E|------------------|-------------|----------|------------|

e|-10h13p10-------10-|--------10----|------------------|---------------|
B|---------13-13^----|-13^~~-----13-|-12p10------------|---------------|
G|-------------------|--------------|------12--12p10---|---------------|
D|-------------------|--------------|---------------12-|-12p10---------|
A|-------------------|--------------|------------------|------12--10-8-|
E|-------------------|--------------|------------------|---------------|

e|-----------------|----------------|------------|-----------------------|
B|-----------------|----------------|------------|-----------------------|
G|-----------------|-10-10----------|------------|---(12b15r14r13)-12-12-|
D|-----10--12p10---|--------12p10---|-10--12--12-|-----------------------|
A|-/12----------12-|-------------12-|------------|-----------------------|
E|-----------------|----------------|------------|-----------------------|

e|-----------------|----------------|-----------|-----------------|
B|-----------------|----------------|--------13-|-15p13--15^-15^--|
G|--12p10----------|----------------|----/14----|------14---------|
D|--------12-12-12-|-12p10----10-12-|-----------|-----------------|
A|-----------------|-------12-------|-----------|-----------------|
E|-----------------|----------------|-----------|-----------------|

e|--------------------|----------------|-10----10--10-|
B|-15^-~~~---15-15p13-|----------------|----13--------|
G|--------------------|-14--\12-12-12^-|--------------|
D|--------------------|----------------|--------------|
A|--------------------|----------------|--------------|
E|--------------------|----------------|--------------|

e|----------10----|-------------------|---------------------|
B|-13^-~~~-----13-|-101210---------10-|-13p10---------------|
G|----------------|--------12-12^-----|-------12--101210----|
D|----------------|-------------------|------------------12-|
A|----------------|-------------------|---------------------|
E|----------------|-------------------|---------------------|

e|--------10----|--13^--13^--|-13^---13-101310-|----10-----10----|
B|-----10----10-|------------|-----------------|-13----13^-------|
G|-12^----------|------------|-----------------|-----------------|
D|--------------|------------|-----------------|-----------------|
A|--------------|------------|-----------------|-----------------|
E|--------------|------------|-----------------|-----------------|

e|---10----|--------------------|------------------|----------------------|
B|------13-|-12p10----10--13p10-|------------------|----------------------|
G|---------|------12------------|-12p10------------|----------------------|
D|---------|--------------------|------12--12p10---|----------------------|
A|---------|--------------------|---------------12-|--12\10--8--8h10-8h10-|
E|---------|--------------------|------------------|----------------------|

e|------------|---------------|----------------|------------|
B|------------|---------------|----------------|------------|
G|------------|-10-10---------|----------------|-10-10~~~---|
D|----12p10---|-------12p10---|-10-10-10-10h12-|------------|
A|---------12-|------------12-|----------------|------------|
E|------------|---------------|----------------|------------|
                                                End Solo: #1

 *this part is played against the bass + drums (listen to the album)
e|--------------------|----------------13^--|--13-10---------------------|
B|-8/10---------------|-13^-^-^-----10------|--------13-10---------------|
G|---------12^--12-10-|---------------------|--------------12^p10--10----|
D|--------------------|---------------------|----------------------------|
A|--------------------|---------------------|-------------------------12-|
E|--------------------|---------------------|----------------------------|

 Fig A
e|---------------------------------|---------------------------------|
B|--------------10\----------------|---10\---------------------------|
G|-------10-----10\------12^--10---|---10\-----------10--------------|
D|----------12------------------12-|--------------------12-----------|
A|-10h12---------------------------|-----------10h12-----------------|
E|---------------------------------|---------------------------------|and so on...

 Fig B (figure out the rythm)
e|-------------------------------------------------------|
B|-------------------------------------------------------|
G|-------------------------------------------------------|
D|-------------------------------------------------------|
A|-3--3-3-3-4-|-5--5-5-5---5-5-5-------------------------|
E|-1--1-1-1-2-|-3--3-3-3---3-3-3-and so on...------------|

 Fill 1
e|--------10------------|-------10------------------------|
B|-----10----13^-^-^-^--|-----10--13-10-------------------|
G|--13------------------|---13---------12^p10-12-10~~-----|
D|----------------------|---------------------------------|
A|----------------------|---------------------------------|
E|----------------------|---------------------------------|

 Fill 2                                                 (go to solo)
e|-13^---13-13^-|-13-10----------------------|-------------|
B|--------------|------13-10-----------------|-------------|
G|--------------|-----------12^p10-12-10-----|-------------|
D|--------------|----------------------------|-------------|
A|--------------|------------------------12--|-------------|
E|--------------|----------------------------|-------------|

[Solo 2]
e|-----10--------------------------------|------10--------------------------|
B|---10----13-10-------------------------|----10--10-13-10------------------|
G|-12-----------12^p10-12p10----10h12-10-|--12------------12^p10-12--10h12--|
D|---------------------------12----------|-------------------------12-------|
A|---------------------------------------|----------------------------------|
E|---------------------------------------|----------------------------------|

e|-----------------------|-------13-15^-15^-------|
B|-------------13-15--13-|-13-15------------15p13-|
G|-10-----12/14-----14---|------------------------|
D|-----------------------|------------------------|
A|-----------------------|------------------------|
E|-----------------------|------------------------|

e|--------10--------------------------|--------------------------------|
B|---10-13--13------------------------|--------------------------------|
G|-13-----------13-12p10-12^p10-12-10-|----------10--------------------|
D|------------------------------------|----10-12-----12p10-------------|
A|------------------------------------|---------------------12-10-8-10-|
E|------------------------------------|--------------------------------|

e|---------------------------|--------------10------------|
B|---------------------------|------------10---13p10------|
G|-----------10-12-12^p10----|----------13----------12p10-|
D|-------/12--------------12-|---12-----------------------|
A|-8-------------------------|----------------------------|
E|---------------------------|----------------------------|

e|-------------------------------|------10------------13^---|
B|--------------------10---------|----10--13^-~~---10-------|
G|--------------------10---------|-12^----------------------|
D|---------10---10h12------10/20-|--------------------------|
A|-10h12-------------------------|--------------------------|
E|-------------------------------|--------------------------|

e|-13-10--------------------------|-------------------|
B|-------13-10--------------------|----------10-------|
G|-------------12-12^p10-12-10----|----------10-12-10-|
D|--------------------------------|----10h12----------|
A|-----------------------------12-|-------------------|
E|--------------------------------|-------------------|

e|------------10\------|-----------------------------------|
B|-----10-----10\------|--------10----10----10-10-10----10-|
G|-12^--------10\------|--------10-12-10-12-10-12-10-12-10-|
D|---------------------|--10h12----------------------------|
A|---------------------|-----------------------------------|
E|---------------------|-----------------------------------|

e|----------10\-----------13-|-15^-15-------------------------------|
B|-----10---10\-----13-15----|--------15-13--------13-15-13---------|
G|-12^------10\--------------|----------------13h14--------13\12-10-|
D|---------------------------|--------------------------------------|
A|---------------------------|--------------------------------------|
E|---------------------------|--------------------------------------|

e|--------10---------10------------------|-----------------------------|
B|-----------10-13^-----13---------------|-----------------------------|
G|-12-12^------------------12^p10-12--10-|---------10------------------|
D|----------------------------------12---|---10-12----12p10------------|
A|---------------------------------------|------------------12\10-8h10-|
E|---------------------------------------|-----------------------------|

e|-----------------------------------|------------10-------------|
B|-----------------------------------|----------10---13p10-------|
G|--------------------10-12-12^p10---|------12^------------12p10-|
D|---------------10/12------------12-|-12------------------------|
A|-8---------------------------------|---------------------------|
E|-----------------------------------|---------------------------|

e|-----------------------------/x--|--------10------/x-------13^-|
B|---------------------10/--x/-----|-----10----13^/-------10-----|
G|---------------------10/---------|-12^-------------------------|
D|---------10----10h12-------------|-----------------------------|
A|-10h12---------------------------|-----------------------------|
E|---------------------------------|-----------------------------|

                                             End Solo: #2: Back to Fig A:
e|-13-10-----------------------|--------------------------|
B|-------13-10-----------------|--------------------------|
G|------------12^p10-12--10----|--------------------------|
D|--------------------------12-|--------------------------|
A|-----------------------------|--------------------------|
E|-----------------------------|--------------------------|

[Solo 3]
e|-1310-1310-13^--13--101310-------10-1310--13^-1310-1310-10---10-------------10-|
B|--------------------------10-13^--------------------------13---1310--10-13^----|
G|-------------------------------------------------------------------12----------|
D|-------------------------------------------------------------------------------|
A|-------------------------------------------------------------------------------|
E|-------------------------------------------------------------------------------|

e|---------------------------------101310-101310----------------|
B|-1310--10----------------10-1310---------------10-------------|
G|-----12--1210-121012-12^-------------------------1210-1012-10-|
D|--------------------------------------------------------------|
A|--------------------------------------------------------------|
E|--------------------------------------------------------------|

e|-----------------------------------------13^---|-1310-10-1310---10------|
B|---------------------------------------10------|-------------13^---1310-|
G|-------------------------------------10--------|------------------------|
D|-101210-12-10---------------1012---------------|------------------------|
A|--------------12\10-8-10/12--------------------|------------------------|
E|-----------------------------------------------|------------------------|

e|-1310-101310---------------------|---------------------------------------------|
B|------------13-1310---10-1310----|---------------------------------------------|
G|-------------------12---------12-|-1210-1210-----------------------------------|
D|---------------------------------|----------12-1210-1210-10--------------------|
A|---------------------------------|-------------------------12-11-10/11-10-8----|
E|---------------------------------|-----------------------------------------10\-|

e|-----------||--------------------------------------------|
B|-----------||-----------------------------12\------------|
G|-----------||--------12-12-12-12~~~-------12\------------|
D|--12---14--||--12h14----------------------14\----(x 2)---|
A|--12---14--||--------------------------------------------|
E|--10---12--||--------------------------------------------|

e|---------------12---12-----------------15^-|-1512--12--1512--12-15121512-1512--12-|
B|-------------12--12----15---15^--15-12-----|-----15--------15----------------15---|
G|-------12-14^------------------------------|--------------------------------------|
D|-12h14-------------------------------------|--------------------------------------|
A|-------------------------------------------|--------------------------------------|
E|-------------------------------------------|--------------------------------------|

e|-12-12-12-12---12-12-12-12---12-12-12-12-12-12-12-12---|
B|--------------------------------------------------12---|
G|-------------------------------------------------------|
D|-------------------------------------------------------|
A|-------------------------------------------------------|
E|-------------------------------------------------------|

          rake:
e|-15^-15-(12--15----------------15^-1512--12-12-------1512-1512--|
B|--------)12------)12--1512--12---------15---12---1512-----------|
G|--------(14------(12--------------------------------------------|
D|----------------------------------------------------------------|
A|----------------------------------------------------------------|
E|----------------------------------------------------------------|

e|---------------12------------15^-|
B|-1512--15-15^-----1512----12-----|
G|-----14----------------14--------|
D|---------------------------------|
A|---------------------------------|
E|---------------------------------|

e|-1512--12-1512---12-----12--------------------------------------|
B|-----15-------15-15--15^-----1512---12-1512-1512----------------|
G|---------------------------------14---------------14^-14^-------|
D|----------------------------------------------------------(12)--|
A|----------------------------------------------------------------|
E|----------------------------------------------------------------|

e|----------------15^--1512----12-15--12-------------------------------------|
B|-1512-1512-1512-----------15-----------15^--15-12-15-12-12-----------------|
G|----------------------------------------------------------14--1412--12-----|
D|------------------------------------------------------------------14--14---|
A|---------------------------------------------------------------------------|
E|---------------------------------------------------------------------------|

e|-------------------------------------------------------------|
B|-------------------------------------------------------------|
G|----------------------------12^------------------------------|
D|-1412----12-14------12---14-----1214-12----------------------|
A|------14-------1214-----------------------14\12--10--12/14---|
E|-------------------------------------------------------------|

e|----------------------------------------------------------------------------|
B|----------------------------------------------------------------------------|
G|-------12----------------------------------12-------------------------------|
D|-12-14----1214-12-----12----------------12----1214-12----12-----------------|
A|-----------------1214----14\12-10-12h14--------------1214---14\12-10--------|
E|---------------------------------------------------------------------10/12--|

e|-------------------------------------------------------|
B|-------------------------------------------------------|
G|-------12-------12-------12--14^-14-12----------(x 4)--|
D|-12h14----12h14----12h14-------------------------------|
A|-------------------------------------------------------|
E|-------------------------------------------------------|

e|------12------------------15^--15^^^-12-1512---|-1512-----------------12--------|
B|----12---15-15^-----15-12-------------------15-|-----15-1512--------12--1512----|
G|-14^-------------------------------------------|-------------14-14^---------14--|
D|-----------------------------------------------|--------------------------------|
A|-----------------------------------------------|--------------------------------|
E|-----------------------------------------------|--------------------------------|

e|------------------------------------12-|------12-----12----------|
B|---------------------------------12----|----12-----12--15^--15^--|
G|-1214121412-----------------14^--------|-14^----14^--------------|
D|------------1412----1214---------------|-------------------------|
A|-----------------14--------------------|-------------------------|
E|---------------------------------------|-------------------------|

e|-12----------12-------|------------------12--------|-----12----------------------|
B|---15-12---12--1512---|-12-12-1512----------1512---|--------1512-----------------|
G|--------14^--------14-|-----------14-14^--------14-|-14^--------14-14^-12-14--12-|
D|----------------------|----------------------------|-----------------------------|
A|----------------------|----------------------------|-----------------------------|
E|----------------------|----------------------------|-----------------------------|

e|-----12-----12-----------------|---------------------|
B|---------------15-15-121412----|---------------------|
G|-14^----14^-----------------14-|-14^--14^--14^^-1214-|
D|-------------------------------|---------------------|
A|-------------------------------|---------------------|
E|-------------------------------|---------------------|

e|----------------------|---------------------------------|
B|----------------------|---------------------------------|
G|-12-------------12----|---------------------------------|
D|-----1412--1214----14-|-----------14--------------------|
A|---------14-----------|-----12-14----14\----------------|
E|----------------------|-------------------0-------------|

e|-------------------------------------------------------|
B|-------------------------------------------------------|
G|-------------------------------------------------------|
D|---------0h2-----------------------------------0h2-----|
A|---0h2-----------------------------------0h2-----------|
E|-0-----3-----0-0-0-0-0-0-0-0-0-0-0-0-0-0-----3---------|

e|-------------------------|------------------------------|
B|-------------------------|------------------------------|
G|------------4^--2h4---4--|--/9\-------------4^--2h4---4-|
D|---------2---------------|---------------2--------------|
A|---0h2-------------------|---------0h2------------------|
E|-0-----3-----------------|-------3-----3----------------|

e|-------------------------10^-10^-10^----10^^^------------------|
B|-----8-----8---10^p8------------------------------8---10^-8----|
G|-4/9---9-----9-------9------------------------9-----9----------|
D|---------------------------------------------------------------|
A|---------------------------------------------------------------|
E|---------------------------------------------------------------|

e|----15^-15p12----15p12----------12--------------------|
B|-12-----------12-------12-12h15----15p12----12--------|
G|-----------------------------------------14-12--------|
D|------------------------------------------------------|
A|------------------------------------------------------|
E|------------------------------------------------------|

e|-----------------12-----------------------------------|
B|--------------12----15p12-----------------12----------|
G|-------12-14^-------------14-121412141214-12----------|
D|-12h14------------------------------------------------|
A|------------------------------------------------------|
E|------------------------------------------------------|

e|------------------------------------------------------|
B|---------------------------------12-------------------|
G|---------------------12----------12-------------------|
D|-(12)h14p12----12h14----14p12h12----------------------|
A|------------14----------------------------------------|
E|------------------------------------------------------|

e|------------------------------------------------------|
B|----------12----------------------------12-12---------|
G|----------12----------------------------12-12---------|
D|-14p12-------14p12----------12-14p12h14---------------|
A|-------14----------14-12h14---------------------------|
E|------------------------------------------------------|

                               full full 1.5
e|------------------------------------------------------|
B|----------12-12--------12-15--------------------------|
G|----------12-12----14^-------14^--14^--14^------------|
D|-14p12h14-------14------------------------------------|
A|------------------------------------------------------|
E|------------------------------------------------------|

e|------------------------------------------------------|
B|--------------------------------------12\-------------|
G|-12-14-12h14-12~----------------------12\-------------|
D|------------------------------------------------------|
A|------------------------------------------------------|
E|------------------------------------------------------|

Okay, now here's the tricky part.
You're gonna have to adlib in E to do this solo.
It's basically imposible to transcribe
so you're on your own.

This part starts about 10:45 into the song,
and is the clean-toned solo groove.

e|------------------------------------------------------|
B|------------------------------------------------------|
G|----x----2-0------x------2-0------x------2-0----------|
D|----x----2-0------x------2-0------x------2-0----------|
A|----x--x-----x----x-x--x-----x----x-x--x-----x--------|
E|-3^-0--0-----0-3^---0--0-----0-3^---0--0-----0-3^/----|

  Fills 1 & 2
e|-------3-5p3-------------------------------------------|
B|----3h5-----5-5p3--------------------------------------|
G|--4---------------4-4s2--0-2/4-4-4p2-------------------|
D|-------------------------------------2-2p0-------------|
A|------------------------------------------2-2p0--------|
E|------------------------------------------------3------|

 Fills 4 & 7
e|------------------------------------------------------|
B|------------------------------------------------------|
G|-0-------------0------------0-------------------------|
D|---2p0---2p0------2p0---0h2---2p0---0h2-0-------------|
A|-------2-----2--------2-----------2-------2p0---------|
E|----------------------------------------------3^------|

 Fill 5
e|------12--------------------12-15^-15-121512------------------|
B|----12--15^--15^-15-12----12-----------------15-15p12---------|
G|-14^-------------------14^----------------------------14-12\--|
D|--------------------------------------------------------------|
A|--------------------------------------------------------------|
E|--------------------------------------------------------------|

 Fill 6
e|------12----------------------------------------------------------|
B|----12---15p12----------------------------------------------------|
G|-14^-----------14-12~------------12----12-------------------------|
D|------------------------14p12----12h14----14p12-------------------|
A|------------------------------14----------------14-12\--2----0----|
E|----------------------------------------------------------3^------|

 Fingerpick:
e|--0--0--0--0--0--0--0---0---0--0---0---0--0--0---0---0---0---0---0--|
B|---0--0--0--0--0--0--0---0---0--0---0---0--0--0---0---0---0---0---0-|
G|--------------------------------------------------------------------|
D|-2--4--5--7--5--7--9--12--14--9--12--14--7--9--12--14--14--14--14---|
A|--------------------------------------------------------------------|
E|--------------------------------------------------------------------|

                                slower......slower....
e|--0--0--0--0--0--0--0--0--0--0--0--0--0--0--0--0--0---0---0----0----0--|
B|---0--0--0--0--0--0--0--0--0--0--0--0--0--0--0--0--0---0---0----0----0-|
G|-----------------------------------------------------------------------|
D|-7--9--9--9--7--9--4--2--4--2--4--2--4--2--4--7--9--12--14---14---14---|
A|-----------------------------------------------------------------------|
E|-----------------------------------------------------------------------|

 11:56
 Distortion On:
e|-------||---------------------------------------------|
B|-------||---------------------------------------------|
G|-------||---------------------------------------------|
D|-------||---------------------------------------------|
A|-------||---0-2-0h2p0-0-2-0h2p0-0-2-0-----------------|
E|-17\0--||-----------------------------3-0-0-----------|

 Fills 1 & 2
e|--------------------------------|
B|--------------------------------|
G|--------------------------------|
D|-----5-7-7^-5h7p5-5h7-5---------|
A|-5h7--------------------7-------|
E|--------------------------7\----|

 Fill 3
e|------12-----------12--------------------------------------|
B|----12--12-15^-15^----15-12h15p12----------------12--------|
G|-14^------------------------------12-12h14p12----12--------|
D|----------------------------------------------14-----------|
A|-----------------------------------------------------------|
E|----------------------------------------------------(14)\--|

e|---------------------------------------------------------------|
B|---------------------------------------------------------------|
G|---------------------------------------------------------------|
D|---------------------------------------------------------------|
A|0-2-0h2p0-0-2-0h2p0-0-2-0h2p0-0-2-0h2p0-0-2-0h2p0-0-2-0--------|
E|--------------------------------------------------------3^~~~--|
                                               just wiggle it, and
                                                                maybe a tremelo bar

e|-----||-----------------------------------------------|
B|-----||-----------------------------------------------|
G|-----||-9-9-7-9---9-9-7-9--9-9-7-9--9-9-7-9-----------|
D|(9)--||-9-9-7-9---9-9-7-9--9-9-7-9--9-9-7-9-----------|
A|-7---||-7-7-5-7---7-7-5-7--7-7-5-7--7-7-5-7-----------|
E|-0---||-----------------------------------------------|

e|------------------------------------------------------|
B|------------------------------------------------------|
G|------------------------------------------------------|
D|------------------------------------------------------|
A|-12-12-12-------10-10-10-----12-12-12----10-10-10-----|
E|-10-10-10--------8--8--8-----10-10-10-----8--8--8-----|

 13:08
 Back to the groove:
e|------------------------------------------------------|
B|------------------------------------------------------|
G|--------------10\9------------------------------------|
D|-10/12-------------10\9-9-9h10p9-9-9/12-12------------|
A|------------------------------------------------------|
E|------------------------------------------------------|


 Ending:
e|-10----13^-13-10h13p10------------------------------------------------|
B|----13-----------------13---------------------------------------------|
G|--------------------------10p9--10p9-10p9-----------------------------|
D|------------------------------------------12p10-12p10-----------------|
A|------------------------------------------------------12-10p9------12-|
E|-------------------------------------------------------------------10-|

Track 8:
"Wicked World" (extra track on cd reissue. B-side to Evil Woman.

e|----------------------------------------------------|
B|-12-----------12------------------------------------|
G|----14-12~-------14-12~-----------------------------|
D|-----------14-----------14--14--12--14--------------|
A|----------------------------14--12--14--------------|
E|----------------------------12--10--12--------------|

e|---------------------------------------------------------------|
B|---------------------------------------------------------------|
G|--------------5-7^-^7p5-7p5------------------------------------|
D|-------7--5h7---------------7--7------5-7-5---5h7--------------|
A|-------7-----------------------7--5h7-------7------------------|
E|-------5-----------------------5-------------------------------|

e|----------------------------------------------------------|
B|----------------------------------------------------------|
G|----------------------------------------------------------|
D|-7--10--12----7--10--12----7-10--12----14\----------------|
A|-7--10--12----7--10--12----7-10--12----14\----------------|
E|-5---8--10----5---8--10----5--8--10----12\----------------|

e|---------------------------------------------------------------|
B|---------------------------------------------------------------|
G|---------------------------------------------------------------|
D|---------------------------------------------------------------|
A|-5h7-5---------5h7-5---------5h7-5---------5h7-5---------------|
E|-------7-6-5-3-------7-6-5-3-------7-6-5-3-------7-6-5-3--0----|

e|----------------------------------------------------------------------|
B|----------------------------------------------------------------------|
G|-------------------------------------------------12~~-----------------|
D|--------5-------------------5-------------/14-14----14-14-14-14-12----|
A|--5h7-7----7-7-7-7-5--5h7-7----7-7-7-7-5------------------------------|
E|----------------------------------------------------------------------|

e|-------------------------------------|
B|-------------------------------------|
G|-------------------------------------|
D|-------------------------------------|
A|-7h9-7----------9h11-9---------------|
E|-------9-8-7-5---------11-10-9-7---0-|

e|---0-----0-----0-----0-----0------0-----0-----0-----0-----0-----0-----0---|
B|-----0-----0-----0-----0-----0------0-----0-----0-----0-----0-----0-----0-|
G|--------------------------------------------------------------------------|
D|-------------------------9-----10-----9-----------------------------------|
A|-12----12----12----12-----------------------12----10----------------------|
E|--------------------------------------------------------12----10----12----|

e|---0-----0-----0-----0-----0-----0------0-----0-----0-----|
B|-----0-----0-----0-----0-----0-----0------0-----0-----0---|
G|----------------------------------------------------------|
D|-------------------------------9-----10-----9-------------|
A|-------------------------12-----------------------12------|
E|-12----12----12----12-------------------------------------|

e|---0-----0-----0-----0-----0-----0-----0-----0-----0-----0-----0---|
B|-----0-----0-----0-----0-----0-----0-----0-----0-----0-----0-----0-|
G|-------------------------------------------------------------------|
D|-------------------------------------------------12----12----12----|
A|-10----------------------------------------------------------------|
E|-------12----10----12----12----12----12----12----------------------|repeat

[Solo]
e|-------------12-------------------------|
B|----------------15p12-------------------|
G|----12-12-14^---------14^p12------------|
D|-14--------------------------14-14\-----|
A|----------------------------------------|
E|----------------------------------------|

e|-------------------------------------------------------------|
B|-------------------------------------------------------------|
G|-------------------------------------------------------------|
D|----12-12-14p12-------12-12-14p12-------12-12-14p12----12-14-|
A|-14-------------14-14-------------14-14-------------14-------|
E|-------------------------------------------------------------|

e|-------------------------------------------------|
B|--------------12-15p12-15^-15-12-----------------|
G|----12-12-14^--------------------14^p12-14-12~~--|
D|-14----------------------------------------------|
A|-------------------------------------------------|
E|-------------------------------------------------|

e|----------------------------------------------------------|
B|----------------------------------------------------------|
G|----------------------------------------------------------|
D|----12-12-14p12-------12-12-14p12-------12-12-14p12-------|
A|-14-------------14-14-------------14-14-------------14----|
E|----------------------------------------------------------|

e|------------------------12---15-15p12------------------12----|
B|----------------------12--15----------15-15p12-------12--15^-|
G|-12-12-14p12----12-14^-------------------------12-14^--------|
D|-------------14----------------------------------------------|
A|-------------------------------------------------------------|
E|-------------------------------------------------------------|

e|-12------------------12h15-12h15p12h15p12--12-------------|
B|----15p12--------------------------------12---15p12-------|
G|----------14^p12-14^--------------------------------14^---|
D|----------------------------------------------------------|
A|----------------------------------------------------------|
E|----------------------------------------------------------|

e|------------------------------------------------|
B|----12-12---------------------------------------|
G|-14-------16^p14-16p14-12-14-16-16^p14-14-12\---|
D|------------------------------------------------|
A|------------------------------------------------|
E|------------------------------------------------|

As much as I have checked, this tab is (almost) 100% correct. Enjoy.

************************************

| ~    Vibrato
| h    Hammer-on
| p    Pull-off
| x    Dead note
| (n)  Ghost note
| /    Slide up
| \    Slide down
| r    Release
| b    Bend

************************************
Suggest correction
comments
print report bad tab
6 comments total. Showing first comments.
0 reply
Rocks Saviour 120 Aug 17, 2004 12:00 AM

If it was your work I'd say good effort but seeing as it isn't I don't know what to say really. Oh yeah, you spelt Randy Rhoads wrong as your name.

0 reply
AC/DC KING 10 Aug 17, 2004 12:00 AM

yah wat he said

0 reply
randy_roads 80 Aug 19, 2004 12:00 AM

i put the collection together, no one else could be bothered doing that. O, i fixed up a few errors in it.

Yes, i know i spelt it wrong, it was already taken...

guest
You may want to rate the tab now too:
select rating
Wanna post a correction for this tab? Suggest correction