Oops, an error
Loading. Please wait.

Children Of The Grave Bass Tab

version 3
version 3

Whole song

53,690 views 123 this week
4 commentsread comments
1 2 3 4 5
excellent!
x 17
add to favorites
launch autoscroll
font size
0
reset
guitar tuner
Autoscroll
slow
fast
+/-
esc
set tempo
stop
Help us to improve Ultimate-Guitar.com Take our survey!
×
Artist:Black Sabbath
Title:Children of the grave
Album:Master of Reality (1971)
Tuning:EADG
Tabber:Justin van Uum

Ow yeah there's a triplet feel in this song
This is kind of the rythm: ( [ ] means a group of triplets or how you say in english and er means eight rest)
 [     ][    ][    ][    ][    ] you know and on and on only two other notes.
  e ere e e e e ere e e e e ere
A-4---4-4-4-4-4---4-4-4-4-4---4

[Intro]
(just get louder on the C#)
G|--------------------------|
D|--------------------------|
A|-4-4-4-4-4-4-4-4-4-4-4-4--|
E|--------------------------|

[Main riff]
G|---------------------------------------|
D|----------------------------------7-6--|
A|-4--4-4-4-4-4--4-4-4-4-4--4-4-4-4------|
E|---------------------------------------|

[Chorus]
G|-------------------------------------------------------------------------|
D|-----------------------------------------7-7-7-7-7-7---------12-12-12-12-|
A|-4--4-4-4-4-4-7-7-7-7-7-----------4-5-6-7------------4-5-6-7-------------|
E|------------------------5-5-5-5-5----------------------------------------|

G|-------------------------------------------------------|
D|-------------------------------------------------------|
A|-6-7-8-9----------------6-7-8-9--back into another riff|
E|---------10-10-10-10-10--------------------------------|

[Pre-bridge]
G|--------------6------------9-----|
D|-----4-6-4-5-6-------4-5-6---8-7-|
A|-4-7-------------4-7-------------|
E|---------------------------------|

[Bridge]
G|------------------------------------------------------------------|
D|---------------6-5-5-5--5-6-8-9-----------------------------------|
A|-4--4--4-4-7-4-------------------4--4-4-4-7--4-------------------4|
E|-------------------------------------------------7-6--6-6-7-9-10--|

[Solo]
During solo,geezer plays mainly the C#,and licks from there.I've added some things.
G|---------------------------------------------------|
D|---------------------------------------------------|
A|-4-4-4-4-4-4-7-7-7-7-4-4-4-4-4---------4-4-4-4-4---|
E|-------------------------------4-6-7-8-------------|

G|--------------------666-4----|
D|--------------------------66-|
A|-4-4-4-4-4-4-4-4-------------|
E|-----------------------------|

 [Ending]
G|--------------------------|
D|--------------------------|
A|44-66-77-99-10-10-11-11---|
E|--------------------------| 
Suggest correction
comments
print report bad tab
4 comments total. Showing first comments.
0 reply
Dropdeadsamm666 31 wrote on March 1 2014, 07:41 am

Surely its in Drop C or Drop C# ??

0 reply
MarianSVK 32 wrote on April 30 2014, 01:31 pm

Clasic EADG or BEADG or EADGC or BEADGC xD

-1 reply
MarianSVK 32 wrote on April 30 2014, 02:21 pm, edited at 02:31 pm

u miss verse. I think solo can be like this

guest
You may want to rate the tab now too:
select rating
Wanna post a correction for this tab? Suggest correction