Oops, an error
Loading. Please wait.

Children Of The Grave Bass Tab

version 4
version 4

Whole song

5,690 views 1 this week
no commentswrite comment
1 2 3 4 5
accurate
x 3
add to favorites
launch autoscroll
font size
0
reset
guitar tuner
Autoscroll
slow
fast
+/-
esc
set tempo
stop
Help us to improve Ultimate-Guitar.com Take our survey!
×
Author
Difficulty
intermediate
CHILDREN OF THE GRAVE - MASTER OF REALITY
BLACK SABBATH 
TUNING: TUNE DOWN ONE AND A HALF STEPS - E A D G (C# F# B E)

( 3 )= triplet
>= accent note

RIFF 1/INTRO
G------------------------------------|
D------------------------------------|
A-7-7--7-7-7--7-7--7-7-7--7-7--7-7-7-|
E------------------------------------|
       ( 3 )       ( 3 )       ( 3 )
  mf__________________________________INCREASE IN VOLUME

RIFF 2
G-------------------------------------------|
D-------------------------------------10--9-|
A-7-7--7-7-7--7-7--7-7-7--7-7--7-7-7--------|
E-------------------------------------------|
       ( 3 )       ( 3 )       ( 3 )
ff

RIFF 3
G------------------------------------------------------------------|
D------------------------------------------------------------------|
A-7-7--7-7-7--7-7--7-7-7--7-7--7-7-7--10-10--10-10-10--------------|
E------------------------------------------------------8-8--8-8-8--|
       ( 3 )       ( 3 )       ( 3 )         (   3   )      ( 3 )
CONT'D
G-------------------------------------------------------------------------|
D----------10-10--10-10-10------------------------------------------------|
A-7-8-9-10------------------9-10-11-12--12-12--12-12-12--12-12--12-12-12--|
E-------------------------------------------------------------------------|
  ( 3 )           (   3   )   (  3  )          (   3   )        (   3   )
CONT'D
G---------------------------------------|
D---------------------------------------|
A-13-12-11-10------------------7-8-9-10-|
E-------------11-11--11-11-11-----------|
  (  3  )            (   3   ) ( 3 )
       


VERSE                                      PLAYED ATHE END OF THE VERSES.
G-----------------------------------------||----------------------------|
D-----------------------------------------||----------------------------|
A-7-7--7-7-7--7-7--7-7-7--7-7--7-7-7--10--||-7-7-7--7-7-7--7-7-7--7-7-7-|
E-----------------------------------------||----------------------------|
       ( 3 )       ( 3 )       ( 3 )  >       ( 3 )  ( 3 )  ( 3 )  ( 3 )


PRE BRIDGE
G--------------7--|--------------9-----|
D------7-7-8-9----|------7-7-8-9---8-7-|
A-7-10------------|-7-10---------------|
E-----------------|--------------------|
  (  3  )  ( 3 )   (  3  )( 3 )

BRIDGE/INTERLUDE 1st time
G----------------|----------------|---------------------------|
D----------------|--------------9-|-8--8-8-9-9-10-10-11-11-12-|
A-7--7-7--7--7-7-|-10--7-7--7-7---|---------------------------|
E----------------|----------------|---------------------------|

G----------------|-------------------|-------------------------|
D----------------|-------------------|-------------------------|
A-7--7-7--7--7-7-|-10--7-7-7-7-------|-------------------------|
E----------------|-------------10-10-|-9--9-9--9--9-9-9-10-10--|

BRIDGE/INTERLUDE 2nd time
G--------------------|------------------|----------------------------|
D--------------------|---------------9--|-8--8-8-9--9-9-10--10-11-11-|
A-7--7-7-7--7--7-7-7-|-10--7-7-7--7-----|----------------------------|
E--------------------|------------------|----------------------------|
     ( 3 )     ( 3 )      ( 3 )              ( 3 )          ( 3 )
G-------|--------------------|--------------------------------|
D-12-12-|--------------------|--------------------------------|
A-------|-7--7-7-7--7--7-7-7-|-10--7-7-7-7--------------------|
E-------|--------------------|-------------10--10-9--9-9-9-9--|
             ( 3 )     ( 3 )                           ( 3 )
G---------|-----------------|
D---------|-----------------|
A---------|-----------------|
E-9--9--9-|-9--9--10-10-10--|

GUITAR SOLO
G------------------------|------------------------|------------------------|
D------------------------|------------------------|------------------------|
A-7-7--7-7-7--7-7--7-7-7-|-7-7--7-7-7--7-7--5-5-5-|-7-7--7-7-7--7-7--7-7-7-|
E------------------------|------------------------|------------------------|
       ( 3 )       ( 3 )        ( 3 )       ( 3 )        ( 3 )       ( 3 )
G--------------------------|------------------------|
D---------------5--5-5-5---|------------------------|
A-7-7--7-7-7--7------------|-7-7--7-7-7--7-7--7-7-7-|
E--------------------------|------------------------|
       ( 3 )       ( 3 )          ( 3 )       ( 3 )
G-------------------------||
D------------------------.||
A-7-7--7-7-7--7-5--5-5-5-.||
E-------------------------||
       ( 3 )       ( 3 )


OUTRO x3
G--------------------------------||--------||
D---------------------7-7--8--9--||--------||
A-7-7--9-9--10-10-10-------------||-7------||
E--------------------------------||--------||
  >    >    >     >


please rate.
Suggest correction
Give kudos to tab author, rate the tab!
1 2 3 4 5
comments
print report bad tab
guest
You may want to rate the tab now too:
select rating
Wanna post a correction for this tab? Suggest correction