Oops, an error
Loading. Please wait.

Children Of The Grave Tab

version 4
version 4
41,500 views 87 this week
4 commentsread comments
1 2 3 4 5
x 22
add to favorites
launch autoscroll
font size
0
reset
how to read this tab
guitar tuner
Autoscroll
slow
fast
+/-
esc
set tempo
stop
Help us to improve Ultimate-Guitar.com Take our survey!
×
Author
Difficulty
intermediate
Tuning 1 1/2 steps down - C# F# B E G# C#

This song is one of the greatest sabbath songs, so i decided to tab it. this is my first 
so it may not be perfect. - A note for morons - as stated above - ITS NOT IN STANDARD 
Dont give it a low rating just cause your dumb and it doesnt sound right because of the tuning.
email me with any corrections or concerns at Dougisgod1313@sbcglobal.net

Key


[Intro]

(Moderate)

e|------------------------------|
B|------------------------------|
G|------------------------------| 
D|------------------------------|
A|------------------------------|
E|-0--0--0--0-0-0-0--0--0-0-0---|
 PM-----------------------------|(x7)

e|-----------------------------|
B|-----------------------------|
G|-----------------------------|
D|-----------------------------|
A|---------------12------------|
E|-0--0--0-0-0-0-14------------|
 PM----------------------------|

e|----------------------------------------------------|
B|----------------------------------------------------|
G|----------------------------------------------------|
D|----------------------------------------------------|
A|-----7-7-7---------7-7-7---------7-7-7-10--9--12\14-|
E|-0-0-0-0-0-0--0--0-0-0-0-0--0--0-0-0-0--8--7--10\12-|
 pm---------------------------------------------------|

e|----------------------------------------------------|
B|----------------------------------------------------|
G|----------------------------------------------------|
D|----------------------------------------------------|
A|-17-17---10---10------10--10--12-12------12-12--10\-|
E|-15-15---8----8-------8---8---10-10------10-10--12\-|

e|-----------------------------------------------|
B|-----------------------------------------------|
G|-----------------------------------------------|
D|-----------------------------------------------|
A|-----7-7-7---------7-7-7---------7-7-7-10--9---|
E|-0-0-0-0-0-0--0--0-0-0-0-0--0--0-0-0-0--8--7---|
 pm----------------------------------------------|(X2)


[Verse 1]

e|-------------------------------------------------------|
B|-------------------------------------------------------|
G|-------------------------------------------------------|
D|-------------------------------------------------------|
A|-------7-7-7-----7-7-7----------7-7-7--------7-7-7---5-|
E|-0--0--0-0-0--0--0-0-0-0--0--0--0-0-0--0--0--0-0-0-0-3-|
 pm------------------------------------------------------|

e|-------------------------------------------------------|
B|-------------------------------------------------------|
G|-------------------------------------------------------|
D|-------------------------------------------------------|
A|-------7-7-7-----7-7-7----------7-7-7--------7-7-7---5-|
E|-0--0--0-0-0--0--0-0-0-0--0--0--0-0-0--0--0--0-0-0-0-3-|
 pm------------------------------------------------------|

e|-------------------------------------------------------|
B|-------------------------------------------------------|
G|-------------------------------------------------------|
D|-------------------------------------------------------|
A|-------7-7-7-----7-7-7----------7-7-7--------7-7-7---5-|
E|-0--0--0-0-0--0--0-0-0-0--0--0--0-0-0--0--0--0-0-0-0-3-|
 pm------------------------------------------------------|

e|-------------------------------------------------------|
B|-------------------------------------------------------|
G|-------------------------------------------------------|
D|-------------------------------------------------------|
A|-------7-7-7-----7-7-7----------7-7-7--------7-7-7---5-|
E|-0--0--0-0-0--0--0-0-0-0--0--0--0-0-0--0--0--0-0-0-0-3-|
 pm------------------------------------------------------|

e|-------------------------------------------------------|
B|-------------------------------------------------------|
G|-------------------------------------------------------|
D|-------------------------------------------------------|
A|-------7-7-7-----7-7-7----------7-7-7--------7-7-7---5-|
E|-0--0--0-0-0--0--0-0-0-0--0--0--0-0-0--0--0--0-0-0-0-3-|
 pm------------------------------------------------------|

e|-------------------------------------------------------|
B|-------------------------------------------------------|
G|-------------------------------------------------------|
D|-------------------------------------------------------|
A|-------7-7-7-----7-7-7----------7-7-7--------7-7-7---5-|
E|-0--0--0-0-0--0--0-0-0-0--0--0--0-0-0--0--0--0-0-0-0-3-|
 pm------------------------------------------------------|

e|-------------------------------------------------------|
B|-------------------------------------------------------|
G|-------------------------------------------------------|
D|-------------------------------------------------------|
A|-------7-7-7-----7-7-7----------7-7-7--------7-7-7---5-|
E|-0--0--0-0-0--0--0-0-0-0--0--0--0-0-0--0--0--0-0-0-0-3-|
 pm------------------------------------------------------|

 Yeah!______
e|------------------------|
B|------------------------|
G|------------------------|
D|------------------------|
A|-0-0-0-0-0-0-0-0-0-0-12-|
E|-0-0-0-0-0-0-0-0-0-0-10-|
 pm-----------------------|

e|--------------------------------------------------------------|
B|--------------------------------------------------------------|
G|--------------------------------------------------------------|
D|--------------------------------------------------------------|
A|-14--------17-17---10---10------10--10--12-12------12-12--10\-|
E|-12--------15-15---8----8-------8---8---10-10------10-10--12\-|


[Verse 2]

e|-------------------------------------------------------|
B|-------------------------------------------------------|
G|-------------------------------------------------------|
D|-------------------------------------------------------|
A|-------7-7-7-----7-7-7----------7-7-7--------7-7-7---5-|
E|-0--0--0-0-0--0--0-0-0-0--0--0--0-0-0--0--0--0-0-0-0-3-|
 pm------------------------------------------------------|

e|-------------------------------------------------------|
B|-------------------------------------------------------|
G|-------------------------------------------------------|
D|-------------------------------------------------------|
A|-------7-7-7-----7-7-7----------7-7-7--------7-7-7---5-|
E|-0--0--0-0-0--0--0-0-0-0--0--0--0-0-0--0--0--0-0-0-0-3-|
 pm------------------------------------------------------|

e|-------------------------------------------------------|
B|-------------------------------------------------------|
G|-------------------------------------------------------|
D|-------------------------------------------------------|
A|-------7-7-7-----7-7-7----------7-7-7--------7-7-7---5-|
E|-0--0--0-0-0--0--0-0-0-0--0--0--0-0-0--0--0--0-0-0-0-3-|
 pm------------------------------------------------------|

e|-------------------------------------------------------|
B|-------------------------------------------------------|
G|-------------------------------------------------------|
D|-------------------------------------------------------|
A|-------7-7-7-----7-7-7----------7-7-7--------7-7-7---5-|
E|-0--0--0-0-0--0--0-0-0-0--0--0--0-0-0--0--0--0-0-0-0-3-|
 pm------------------------------------------------------|

e|-------------------------------------------------------|
B|-------------------------------------------------------|
G|-------------------------------------------------------|
D|-------------------------------------------------------|
A|-------7-7-7-----7-7-7----------7-7-7--------7-7-7---5-|
E|-0--0--0-0-0--0--0-0-0-0--0--0--0-0-0--0--0--0-0-0-0-3-|
 pm------------------------------------------------------|

e|-------------------------------------------------------|
B|-------------------------------------------------------|
G|-------------------------------------------------------|
D|-------------------------------------------------------|
A|-------7-7-7-----7-7-7----------7-7-7--------7-7-7---5-|
E|-0--0--0-0-0--0--0-0-0-0--0--0--0-0-0--0--0--0-0-0-0-3-|
 pm------------------------------------------------------|

e|-------------------------------------------------------|
B|-------------------------------------------------------|
G|-------------------------------------------------------|
D|-------------------------------------------------------|
A|-------7-7-7-----7-7-7----------7-7-7--------7-7-7---5-|
E|-0--0--0-0-0--0--0-0-0-0--0--0--0-0-0--0--0--0-0-0-0-3-|
 pm------------------------------------------------------|

e|-------------------------------------------------------|
B|-------------------------------------------------------|
G|-------------------------------------------------------|
D|-------------------------------------------------------|
A|-------7-7-7-----7-7-7----------7-7-7--------7-7-7---5-|
E|-0--0--0-0-0--0--0-0-0-0--0--0--0-0-0--0--0--0-0-0-0-3-|
 pm------------------------------------------------------|


[Interlude]

e|--------------------------------------------------------------|
B|--------------------------------------------------------------|
G|--------------------------------------------------------------|
D|--------------------------------------------------------------|
A|-14--------17-17---10---10------10--10--12-12------12-12--10\-|
E|-12--------15-15---8----8-------8---8---10-10------10-10--12\-|

e|------------------------------------------------|
B|------------------------------------------------|
G|------------------------------------------------|  x4
D|--------------2------------------------2--------|
A|-----0-1-0-1-2---------------0-1-0-1-2----1--0--|
E|-0-3---------------------0-3--------------------|

e|------------------------------------------------------------|
B|------------------------------------------------------------|
G|------------------------------------------------------------|
D|------------------------------------------------------------|
A|-14-----------17--14--x--9----8---------8--9---11--12----14-|
E|-12-----------15--12--x--7----6---------6--7----9--10----12-|

e|--------------------------------------------|
B|--------------------------------------------|
G|--------------------------------------------|
D|--------------------------------------------|
A|-17--14--x--12-------7-------------7-----12-|
E|-15--12--x--10-------9-------------9-----10-|

e|------------------------------------------------------------|
B|------------------------------------------------------------|
G|------------------------------------------------------------|
D|------------------------------------------------------------|
A|-14-----------17--14--x--9----8---------8--9---11--12----14-|
E|-12-----------15--12--x--7----6---------6--7----9--10----12-|

e|--------------------------------------------|
B|--------------------------------------------|
G|--------------------------------------------|
D|--------------------------------------------|
A|-17--14--x--12-------7-------------7-----12-|
E|-15--12--x--10-------9-------------9-----10-|


e|-----------------------------------------------|
B|-----------------------------------------------|
G|-----------------------------------------------|
D|-----------------------------------------------|
A|-----7-7-7---------7-7-7---------7-7-7-10--9---|
E|-0-0-0-0-0-0--0--0-0-0-0-0--0--0-0-0-0--8--7---|
 pm----------------------------------------------|

e|-------------------------------------------------------|
B|-------------------------------------------------------|
G|-------------------------------------------------------|
D|-------------------------------------------------------|
A|-----7-7-7---------7-7-7---------7-7-7-10--9---12---12-|
E|-0-0-0-0-0-0--0--0-0-0-0-0--0--0-0-0-0--8--7---10---10-|
 pm------------------------------------------------------|


[Verse 3]

e|-------------------------------------------------------|
B|-------------------------------------------------------|
G|-------------------------------------------------------|
D|-------------------------------------------------------|
A|-------7-7-7-----7-7-7----------7-7-7--------7-7-7---5-|
E|-0--0--0-0-0--0--0-0-0-0--0--0--0-0-0--0--0--0-0-0-0-3-|
 pm------------------------------------------------------|

e|-------------------------------------------------------|
B|-------------------------------------------------------|
G|-------------------------------------------------------|
D|-------------------------------------------------------|
A|-------7-7-7-----7-7-7----------7-7-7--------7-7-7---5-|
E|-0--0--0-0-0--0--0-0-0-0--0--0--0-0-0--0--0--0-0-0-0-3-|
 pm------------------------------------------------------|

e|-------------------------------------------------------|
B|-------------------------------------------------------|
G|-------------------------------------------------------|
D|-------------------------------------------------------|
A|-------7-7-7-----7-7-7----------7-7-7--------7-7-7---5-|
E|-0--0--0-0-0--0--0-0-0-0--0--0--0-0-0--0--0--0-0-0-0-3-|
 pm------------------------------------------------------|

e|-------------------------------------------------------|
B|-------------------------------------------------------|
G|-------------------------------------------------------|
D|-------------------------------------------------------|
A|-------7-7-7-----7-7-7----------7-7-7--------7-7-7---5-|
E|-0--0--0-0-0--0--0-0-0-0--0--0--0-0-0--0--0--0-0-0-0-3-|
 pm------------------------------------------------------|

e|-------------------------------------------------------|
B|-------------------------------------------------------|
G|-------------------------------------------------------|
D|-------------------------------------------------------|
A|-------7-7-7-----7-7-7----------7-7-7--------7-7-7---5-|
E|-0--0--0-0-0--0--0-0-0-0--0--0--0-0-0--0--0--0-0-0-0-3-|
 pm------------------------------------------------------|

e|-------------------------------------------------------|
B|-------------------------------------------------------|
G|-------------------------------------------------------|
D|-------------------------------------------------------|
A|-------7-7-7-----7-7-7----------7-7-7--------7-7-7---5-|
E|-0--0--0-0-0--0--0-0-0-0--0--0--0-0-0--0--0--0-0-0-0-3-|
 pm------------------------------------------------------|

e|-------------------------------------------------------|
B|-------------------------------------------------------|
G|-------------------------------------------------------|
D|-------------------------------------------------------|
A|-------7-7-7-----7-7-7----------7-7-7--------7-7-7---5-|
E|-0--0--0-0-0--0--0-0-0-0--0--0--0-0-0--0--0--0-0-0-0-3-|
 pm------------------------------------------------------|

e|--------------------------------------------------------------|
B|--------------------------------------------------------------|
G|--------------------------------------------------------------|
D|--------------------------------------------------------------|
A|-14--------17-17---10---10------10--10--12-12------12-12--10\-|
E|-12--------15-15---8----8-------8---8---10-10------10-10--12\-|


[Solo]

e|-12b-12b-12b-12b-------12-12-------------------------------|
B|-15b-15b-15b-15b---15b-------15p12-------------------------|
G|-----------------------------------14b--14p12-14p12----12--|
D|----------------------------------------------------14-----|
A|-----------------------------------------------------------|
E|-----------------------------------------------------------|

e|--------12-----12---------------------------------------------------12-|
B|------12---15b----15p12-------------------------------------------12---|
G|-14b--------------------14b-14-12-14p12---12---------------12--14b-----|
D|----------------------------------------14--14p12-14p12h14-------------|
A|-----------------------------------------------------------------------|
E|-----------------------------------------------------------------------|

e|------12-------12-15p12---------12------------------------------------|
B|-15b------15b------------15-15b----15p12------------------------------|
G|-----------------------------------------15p14p12-14p12----12---------|
D|--------------------------------------------------------14-----14p12--|
A|----------------------------------------------------------------------|
E|----------------------------------------------------------------------|

e|-------------------------------------------------------12--------------15-|
B|----------------------------------------------------12----15p12--12/17----|
G|---------------------------------------------12-14b-----------------------|
D|-14p12--12--------------------------12-12h14------------------------------|
A|------14---14/12p10--12p10h12-12\14---------------------------------------|
E|--------------------------------------------------------------------------|

e|-17h18p17p15--17h18p17p15--17h17p17p15-17p15----15-----------------------|
B|---------------------------------------------17---17p15------------------|
G|--------------------------------------------------------16/14p12-12p12---|
D|----------------------------------------------------------------------14-|
A|-------------------------------------------------------------------------|
E|-------------------------------------------------------------------------|

e|--------12------12--------------------------------------------------12-----|
B|------------15b---15p12-------------------------------------------12---15--|b
G|-12h14b----------------14b-14p12-14p12----12---------------12-14b----------|
D|---------------------------------------14---14p12-14p12h14-----------------|
A|---------------------------------------------------------------------------|
E|---------------------------------------------------------------------------|

e|-12-15p12-------12---------------------------------12----------------------|
B|----------1515b----15p12------------------------12----15p12----------------|
G|-------------------------15p14p12-14p12---12-14-------------15p14p12-14p12-|
D|---------------------------------------14----------------------------------|
A|---------------------------------------------------------------------------|
E|---------------------------------------------------------------------------|

e|------------12------------------------------------------------------------|
B|---------12----15p12------------------------------------------------------|
G|---12-14-------------15p14p12-14p12---12----------------------------------|
D|-14---------------------------------14---14p12-14p12---12-----------------|
A|-----------------------------------------------------14---14/12p10-12p10--|
E|--------------------------------------------------------------------------|

e|--------------|
B|--------------|
G|--------------|
D|--------------|
A|---10p12-10-7-|
E|-12---------0-|


[Outro]

e|----------------------------------------------------|
B|----------------------------------------------------|
G|----------------------------------------------------|
D|----------------------------------------------------|
A|-14-------17-17-10-10----10-10-12-12----------12-12-|
E|-12-------15-15-8--8------8--8-10-10----------10-10-|

                                                  let ring
e|-12--12----14--14---15--15----16--16----17--17\----|
B|-15b-15b---17b-17b--18b-18b---19b-19b---20b--------|
G|---------------------------------------------------|
D|---------------------------------------------------|
A|------------------------------------------------14-|
E|------------------------------------------------12-|

and thats it.



************************************

| x  Dead note
| h  Hammer-on
| p  Pull-off
| b  Bend
| /  Slide up
| \  Slide down
| pm palm mute

************************************
Suggest correction
comments
print report bad tab
4 comments total. Showing first comments.
0 reply
fLYinGV23 102 Jul 04, 2008 04:26 PM

great tab man! everything sounds right and this is pretty much how i play it:P 5 stars

0 reply
68lpjr 10 Jul 21, 2010 09:21 PM

this tab is dead on. Just got got finished jammin' it out. 5 stars!!! and two thumbs up!

+1 reply
mikefire 81 May 06, 2013 10:09 PM

Tony Iommi plays it lower but still the same notes so 5 stars

guest
You may want to rate the tab now too:
select rating
Wanna post a correction for this tab? Suggest correction