Oops, an error
Loading. Please wait.

Children Of The Sea Bass Tab

version 2
version 2

Whole song

Interactive

6,311 views 21 this week
no commentswrite comment
1 2 3 4 5
excellent!
x 7
add to favorites
launch autoscroll
font size
0
reset
guitar tuner
Tab Pro tools
  • play this tab
  • loop segment
  • change instrument
  • show fretboard
  • metronome
×
Best way to learn
"Children Of The Sea"
Autoscroll
slow
fast
+/-
esc
set tempo
stop
Contributor
Difficulty
intermediate
Title: Children Of The Sea
Artist: Black Sabbath
Album: Heaven And Hell
Composer: Tony Iommi, Geezer Butler, Dio, Bill Ward
Tabbed By: FLBatista


INTRO AND VERSE:

G|----------11--13-11----11------------------------------------------------------------|
D|-11-13-14-----------14-----14-13-14--13-11-13--11----------------14-13-11-13--11-----|
A|--------------------------------------------------11\-4--4-4--4------------------11\-|
E|-------------------------------------------------------------------------------------|


G|-----------------------------------------------------------------|
D|--------------1-4-----------------14-13-11-13--11----------------|
A|-4--4-4--4--2-----1----4--4-4--4------------------11\-4--4-4--4--|
E|---------------------2-------------------------------------------|


VERSE 2:

G|------------------------------------------36------------------------------|
D|----------------------36-----------------4----36\----------------------36-|
A|------------------14-4-----------------------4---------------------14-4---|
E|-4-44-67467-4-44-2-------4-44-67467-4-44----------4-44-67467-4-44-2-------|


G|-----------------------------------------------------------------------------|
D|-----------------64-----------------------------36\----------------------346-|
A|-------------------6464242------------------14-4---------------------14-4----|
E|-4-44-67467-4-44-----------4-44-67467-4-44-2--------4-44-67467-4-44-2--------|
                       a


CHORUS:

G|-------------------------------------------------------------------------------------|
D|------------1--------------6------------1-------64------------------1--------------6-|
A|-2-2-22---14--------------6--2-2-22---14----------646424-2-2-22---14--------------6--|
E|-------2-2----4-44-46p46p4---------2-2----4-44-4---------------2-2----4-44-46p46p4---|


G|-------------------------------------------|
D|-----------------------------1-------------|
A|-2-2-2----------1-2-2-2----14-4-44-4-4(8X)-|
E|-------2-4p2-4p2--------2-2----------------|


VERSE 3:

G|------------------------------------------36------------------------------|
D|----------------------36-----------------4----36\----------------------36-|
A|------------------14-4-----------------------4---------------------14-4---|
E|-4-44-67467-4-44-2-------4-44-67467-4-44----------4-44-67467-4-44-2-------|


G|-----------------------------------------------------------------------------|
D|-----------------64-----------------------------36-----------------64--------|
A|-------------------6464242------------------14-4---------------------6464242-|
E|-4-44-67467-4-44-----------4-44-67467-4-44-2-------4-44-67467-4-44-----------|
                       a


CHORUS 2:

G|---------------------------------------------------------------------------------------|
D|------------1-------------64--------------1-------64------------------1--------------6-|
A|-2-2-22---14----------------64-2-2-22---14----------646424-2-2-22---14--------------6--|
E|-------2-2----4-44-46p46p4-----------2-2----4-44-4---------------2-2----4-44-46p46p4---|


G|--------------------------------|
D|-----------------------------1--|
A|-2-2-2----------1-2-2-2----14-4-|
E|-------2-4p2-4p2--------2-2-----|


BRIDGE:

G|----6-----4-----3--------------|
D|---6-----4-----3---------------|
A|-4---4-2---2-1---1-------------|
E|-------------------44-44-44-44-|


DURING THE GUITAR SOLO:

G|-------------8--8-10-11-10-8-10-------------------------------|
D|-----------8--------------------------------------------------|
A|-6--6-4-6--------------------------------4------4-6-8-9-8-6-8-|
E|--------------------------------6--6-4-6---6-6----------------|


G|-------------8--8-10-11-10-8-10-----------------------|
D|-----------8------------------------------------------|
A|-6--6-4-6--------------------------------4------9--8--|
E|--------------------------------6--6-4-6---6-6--------|


G|-------------8--8-10-11-10-8-10-------------------------------|
D|-----------8--------------------------------------------------|
A|-6--6-4-6--------------------------------4------4-6-8-9-8-6-8-|
E|--------------------------------6--6-4-6---6-6----------------|


G|-------------8--8-10-11-10-8-10-------------------------|
D|-----------8--------------------------------------------|
A|-6--6-4-6--------------------------------4------9-8-6-8-|
E|--------------------------------6--6-4-6---6-6----------|


G|------8---8---8-------------------8---8---8---------|
D|----8---8---8-------------------8---8---8-----------|
A|-6-----------------------9-8-6----------------------|
E|---------------77--99~----------------------77--99~-|


VERSE 4:

G|-------6~--98686---------6-----------------6---98686---------6-----------|
D|-------6~-------6\------6-6----14---------6-6-------6\------6-6----14----|
A|-------4~----------4-44----4--2--1---4-44----4---------4-44----4--2--1---|
E|-4/9~------------------------------2-----------------------------------2-|


CHORUS 3:

G|---------------------------------------------------------56-4---|
D|------------1--------------6------------1--------------------4/-|
A|-2-2-22---14--------------6--2-2-22---14------------------------|
E|-------2-2----4-44-46p46p4---------2-2----4-44-6-66-7-77--------|
                                                           a

G|----------------------------------------------------------------------------|
D|------------1-------64------------------------------------------------------|
A|-2-2-22---14----------646424--2-2-2----------1-2-2-2--------4-44-4-42121--1-|
E|-------2-2----4-44-4----------------2-4p2-4p2--------2-22-2-------------24--|


VERSE 5:

G|------------------------------------------36--------------------------------|
D|----------------------36-----------------4----36\------------------------36-|
A|------------------14-4-----------------------4-----------------------14-4---|
E|-4-44-67467-4-44-2-------4-44-67467-4-44----------4-44/\-67467-4-44-2-------|


G|-----------------------1------|
D|---------------------34-------|
A|-----------------14-4----4-44-|
E|4-44-67467-4-44-2-------------|


LEG:
\: Slide Down
/: Slide Up
a: Appoggiatura
~: Let Ring
h: Hammer On
p: Pull Off
comments
print report bad tab
I want to post or [tab]
guest
You may want to rate the tab now too:
select rating
Please do not post tabs as comments. Select "correction" instead!