Oops, an error
Loading. Please wait.

Computer God Bass Tab

version 1
version 1

Whole song

Interactive

2,001 views 1 this week
no commentswrite comment
1 2 3 4 5
excellent!
x 3
add to favorites
launch autoscroll
font size
0
reset
guitar tuner
Tab Pro tools
  • play this tab
  • loop segment
  • change instrument
  • show fretboard
  • metronome
×
Best way to learn
"Computer God"
Autoscroll
slow
fast
+/-
esc
set tempo
stop
Contributor
Difficulty
Tuning
intermediate
D# G# C# F# A# D#
Title: Computer God
Artist: Black Sabbath
Album: Dehumanizer
Composer: Dio / Iommi / Butler
Tabbed By: FLBatista
Tunning: 1 step down (Gb,Db,Ab,Eb or F#,C#,G#,D#)

MAIN RIFF:

Gb|-------------------------------------------|
Db|---------------575-5-----------------575-5-|
Ab|-777-888-777-8----8-87-777-888-777-8----8--|
Eb|-------------------------------------------|


VERSE (Waiting for the revolution...):

Gb|-------------|X4 |------------7-7-7--|
Db|-------------|   |-575-5-------------|
Ab|-777-888-777-|   |----8-875~-5-5-5-5-|
Eb|-------------|   |-------------------|

VERSE (Unward all your cristal soldiers...):

Gb|------------------------------------------------------------------|
Db|------------------------------------------------------------------|
Ab|-777-888-777---777-888-777----7-5-------777-888-777---777-888-777-|
Eb|-----------------------------7-7-7653h5---------------------------|

Gb|----------|
Db|----------|
Ab|-78757531-|
Eb|----------|

PRE-CHORUS (Take a look at...):

Gb|--------3------0----------5------2-|X2
Db|----3-------013------5--------235--|
Ab|-111--11--13-----3333---33--35-----|
Eb|-----------------------------------|

CHORUS (There's another side...):

Gb|---------------------------| |----------------------5-------|X2
Db|-0--0-2-3-2-0---------320--| |-0--0-2-3-2-0------------320--|
Ab|--------------1-3-3~-----3-| |--------------1-3-3--3-3----3-|
Eb|---------------------------| |------------------------------|

Gb|------------|
Db|------------|
Ab|-1~-3~-5555-|
Eb|------------|


VERSE (Love is a automatic pleasure...):

Gb|------------------------------------------------------------------|
Db|------------------------------------------------------------------|
Ab|-777-888-777---777-888-777-----------/\-777-888-777---777-888-777-|
Eb|------------------------------------------------------------------|

Gb|----------|
Db|----------|
Ab|-78757531-|
Eb|----------|

Play:
-PRE CHORUS

CHORUS 2:

Gb|---------------------------| |----------------------5-------|X2
Db|-0--0-2-3-2-0---------320--| |-0--0-2-3-2-0------------320--|
Ab|--------------1-3-3~-----3-| |--------------1-3-3--3-3----3-|
Eb|---------------------------| |------------------------------|

Gb|------------7--7--7---|
Db|-----------7--7--7-7--|
Ab|-1~-3~-5--5---------5-|
Eb|----------------------|

BRIDGE:

Gb|-------------5-5~--------------------------|
Db|------------------320----------0----320-0~-|
Ab|-1333~--1333---------3-1333~-13-3~-----3---|
Eb|-------------------------------------------|

VERSE (Midnight confessions...):

Gb|-75-----------75----------75-----------------|
Db|---75-----------75----------75---------------|
Ab|-----5~--3~-------5~--3~------5~--3~--1~--0~-|
Eb|---------------------------------------------|

VERSE (Waiting for the revolution...):

Gb|------------------------------------------------------|
Db|---------------------------575-5---------------3-33---|
Ab|-777-888-777---777-888-777----8-87-5-553-331-11----5~-|
Eb|------------------------------------------------------|

FIRST SOLO:

Gb|-----------------|X4 |-----------------------------------------------9--|
Db|-----------------|   |---------------9------------------------------9-9-|
Ab|---------5-4--4--|   |---------7-77-7-75-55-555----------------7-77-----|
Eb|-22222222----5-5-|   |-7-77-777----------------5-55-5557-77-777---------|

Gb|-----------------------------------------------------------------|
Db|-----54--------------------------------5--4---4------5-----------|
Ab|-5-55--54---------3-33-33-33-33-35-55-5-----5---77777--5---------|
Eb|----------5-55-555---------------------------------------7653532-|

Gb|-------------------------7-----------------------|
Db|------5----------------5---9875754----------75---|
Ab|-77777--5---------77777------------7-7-7-575--75-|
Eb|----------7653532--------------------------------|

VERSE (Deliver us to evil...):

Gb|-----------------|X4 |-----------------------------------------------9--|
Db|-----------------|   |---------------9------------------------------9-9-|
Ab|---------5-4--4--|   |---------7-77-7-75-55-555----------------7-77-----|
Eb|-22222222----5-5-|   |-7-77-777----------------5-55-5557-77-777---------|

Gb|------------------------------------------------|
Db|-----54--------------------------------5--4---4-|
Ab|-5-55--54---------3-33-33-33-33-35-55-5-----5---|
Eb|----------5-55-555------------------------------|

FINAL SOLO:

Gb|------------------------------------------------------------------|
Db|------5----------------5----------------5-----------------45577---|
Ab|-77777--5---------77777--5---------77777--5--------------7-----55-|
Eb|----------7653532----------7653532----------7653532-0-0-0---------|


Gb|------------------------------------------7-----------------------|X2
Db|------5----------------5----------------5---9875754----------75---|
Ab|-77777--5---------77777--5---------77777------------7-7-7-575--75-|
Eb|----------7653532----------7653532--------------------------------|

Gb|------------------------------------------7---------------------------|
Db|------5----------------5----------------5---9875754-------------------|
Ab|-77777--5---------77777--5---------77777------------7-7-7-7-7-7-7~-7\-|
Eb|----------7653532----------7653532------------------------------0~----|
comments
We did not receive enough feedback on this tab! Please rate:
print report bad tab
1 2 3 4 5
I want to post or [tab]
guest
You may want to rate the tab now too:
select rating
Please do not post tabs as comments. Select "correction" instead!