Oops, an error
Loading. Please wait.

Country Girl Tab

version 1
version 1

Whole song

Interactive

18,905 views 33 this week
2 commentsread comments
1 2 3 4 5
x 10
add to favorites
launch autoscroll
font size
0
reset
how to read this tab
guitar tuner
×
Best way to learn
"Country Girl"
Autoscroll
slow
fast
+/-
esc
set tempo
stop
Author
Country Girl
Black Sabbath - Mob Rules (1981)

e|---------------------------------------|
B|---------------------------------------|
G|---------------------------------------|
D|------------5-5------------------------|
A|--5h7-7-5h7-----7-5h7p5----------------|
E|------------------------8---7---3---2--|

e|--------------------------------------------------|
B|--------------------------------------------------|
G|--------------------------------------------------|
D|-------------------------------------------5------|
A|-----------------------------------------------9--|
E|--5h7-7-7--5h7-8--7---5h7--8---7---8---7----------|

e|-----------||------------------------------------|
B|-----8--7--||-----8-----------------5------------|
G|---9-9--7--||-----9-----------------4------------|
D|--9--9--7--||---9-------7-5-------5--------------|
A|-7---9--5--||-7-------5-----54--3---------9-10-9-|
E|-----------||---------------------------7--------|

                 ~~~~~~
e|------------------------------------------------------------------|
B|----------------------------12-15-12--12--------------------------|
G|----------------------12-16^--------14--1514p12-14-14p12--12------|
D|-------------14-----------------------------------------14--14p12-|
A|-12/14-14\12------------------------------------------------------|
E|------------------------------------------------------------------|

e|-----------------------------------------------------------|
B|-------------------------------------------12-15-15----15^-|
G|-----------------------14^1412--------12h14---------16^----|
D|------------------------------14-14-14---------------------|
A|-14p12h14p12 14^^14----------------------------------------|
E|-----------------------------------------------------------|

e|-15-12-15-12---------------------------------------------------------------------|
B|-------------15p12-15p12--12-15-12-----------------------------------------------|
G|------------------------14---------14-12-14-12-14-12-----------------------------|
D|----------------------------------------------------14-12-14-12------------------|
A|----------------------------------------------------------------14-12-14-12-10---|
E|---------------------------------------------------------------------------------|

************************************

| h  Hammer-on
| p  Pull-off
| /  Slide up
| \  Slide down
| ~  Vibrato

************************************
Suggest correction
comments
print report bad tab
2 comments total.
+1 reply
fLYinGV23 102 Jul 10, 2008 02:35 PM

sounds good enough to me, this song kicks ass

0 reply
Anjohl 450 May 05, 2010 07:55 AM

I think after the hammer on in the intro, you hit the E twice, not once.

guest
You may want to rate the tab now too:
select rating
Wanna post a correction for this tab? Suggest correction