Oops, an error
Loading. Please wait.

Cross Of Thorns Bass Tab

version 1
version 1

Whole song

Interactive

287 views 1 this week
no commentswrite comment
1 2 3 4 5
please rate
add to favorites
launch autoscroll
font size
0
reset
guitar tuner
Tab Pro tools
  • play this tab
  • loop segment
  • change instrument
  • show fretboard
  • metronome
Autoscroll
slow
fast
+/-
esc
set tempo
stop
Contributor
Difficulty
Tuning
novice
D# G# C# F# A# D#
Title: Cross Of Thorns
Artist: Black Sabbath
Album: Cross Purposes
Bassist: Geezer Butler
Composer: Iommi, Butler , Martin
Tabbed By: FLBatista


Chorus:

Gb|---------------------------------------------------------|
Db|---------------------------------------------------------|
Ab|-----7--5h7----7--5h7----5h7-----7--5h7----7--5h7----5h7-|
Eb|-0-0---------0---------0-----0-0---------0---------0-----|


Gb|----------------------------------------7-------|
Db|-5\---------------------------------------------|
Ab|------3--3----3--3--3-3-------7--5----5---5-5h7-|
Eb|------------------------3--3--------------------|


Gb|---------------------------------------------------------|
Db|---------------------------------------------------------|
Ab|-----7--5h7----7--5h7----5h7-----7--5h7----7--5h7----5h7-|
Eb|-0-0---------0---------0-----0-0---------0---------0-----|


Gb|---------------------------------------|
Db|-5\------------------------------------|
Ab|------3--3----3--3--3-3-------7--5~----|
Eb|------------------------3--3-----------|


Verse:

Gb|-------|-----------------------------------------------------------------|X3
Db|-------|-----------------------------------------------------------------|
Ab|---7\--|-----------------------------------------------------------------|
Eb|-x-----|-0-0-3-0---0-----0-0-3-0---0-----0-0-3-0---0-----0-0-3-0---0-----|
                      +               +               +               +

Gb|---------|
Db|-54------|
Ab|---7~----|
Eb|---------|


Play:
- Chorus


Verse 2:

Gb|----------------------------------------------------|X2
Db|----------------------------------------------------|
Ab|-3--3--3--3--3--3--3--3--3--3--3--0-2-3--0-2-5--3-2-|
Eb|----------------------------------------------------|


Gb|------------------------------4----------------|
Db|--------7-----------------2-4---4-2-4-------4--|
Ab|-0--5-7---7-5-7-2-3--2----------------6--7-----|
Eb|-----------------------------------------------|


Verse 3:

Gb|----------------------------5----------------------------------------------5----------------|X2
Db|-------4--5-------------3-5----3-5-------5--4---------4--5-------------3-5----3-5-----------|
Ab|----2----------2--3----------------5--5------------2----------2--3----------------2--2--5--5|
Eb|-0----------------------------------------------0-------------------------------------------|


Gb|------|
Db|------|
Ab|------|
Eb|-0~---|


During The Guitar Solo:


Gb|---------------------------------------------------------------------------5---5---|
Db|-----------------------------------------------------------------------------5---5-|
Ab|-7\---3--3--3--3--3--3--3--3--3--3--3--0-2-3--0-2-5--3-2-3--3--3--3--3--3----------|
Eb|-----------------------------------------------------------------------------------|


Gb|---------------------------------------------------------4----------------|
Db|-----------------------------------7-----------------2-4---4-2-4-------4--|
Ab|-3--3--3--0-2-3--0-2-5--3-2-0--5-7---7-5-7-2-3--2----------------6--7-----|
Eb|--------------------------------------------------------------------------|


Play:
- Verse 3


Leg:

h : Hammer On
/ : Slide Up
\ : SLide Down
x : Dead Note
~ : Let Ring
+ : Staccato
comments
We did not receive enough feedback on this tab! Please rate:
print report bad tab
1 2 3 4 5
I want to post or [tab]
guest
You may want to rate the tab now too:
select rating
Please do not post tabs as comments. Select "correction" instead!