Oops, an error
Loading. Please wait.

Devil Cried Tab

version 1
version 1

Whole song

Interactive

5,075 views 9 this week
3 commentsread comments
1 2 3 4 5
accurate
x 5
add to favorites
launch autoscroll
font size
0
reset
how to read this tab
guitar tuner
Autoscroll
slow
fast
+/-
esc
set tempo
stop
Help us to improve Ultimate-Guitar.com Take our survey!
×
Author
Difficulty
intermediate
-------------------------------------------------------------------------------
                             The Devil Cried – Black Sabbath
-------------------------------------------------------------------------------
Tabbed by: Hairyjonny
Email: Jonny_rock_ldzppln@hotmail.co.uk

Song order and lyrics at the bottom

Comments/Complaints/Compliments Welcome

Tuning: EADGBe

| /  slide up
| \  slide down
| h  hammer-on
| p  pull-off
| ~  vibrato
| +  harmonic
| x  Mute note

    Guitar 1 only - Intro
e|---------------------------------------------------------------------------|
B|---------------------------------------------------------------------------|
G|---------------------------------------------------------------------------|
D|----2--------9—--------2------------------2--------9---------2-------------|
A|-4--0—2/4-2--7—7/9---4-0-2/4-2--2222---4--0-2/4-2--7-7/9---4-0-2/4-2-2222--|
E|-2-------------5/7---2----------0000---2-------------5/7---2---------0000--|
     Guitar 1 – Intro 2
e|---------------------------------------------------------------------------|
B|---------------------------------------------------------------------------|
G|---------------------------------------------------------------------------|
D|---------------------------------------------------------------------------|
A|-4-------4-------4-------4-2/4--------4------4------4-----4—2/4------------|
E|-2--5/7--2--5/7--2--5/7--2-------5/7--2—5/7--2—5/7--2—5/7-2----------------|
    Guitar 2 – Intro 2
e|---------------------------------------------------------------------------|
B|---------------------------------------------------------------------------|
G|-11~~--10~~--6--6--/9~~-8~~-4~~--11~~--10~~--6--6--/9~~-8~~--4-~~----------|
D|---------------------------------------------------------------------------|
A|---------------------------------------------------------------------------|
E|---------------------------------------------------------------------------|
   2 Guitars 
e|------------|
B|------------|
G|------------|
D|--9---------|
A|--7---2-----|
E|------0-----|
    Verses
e|------------------------------------|     
B|------------------------------------|
G|------------------------------------|
D|-------/7--------/7--------/7-------|
A|-4444--/744444444/7--4444--/7—444432|
E|-2222----22222222----2222-----222210|
Pm ....    ........    ....     ...  
   


Chorus riff       
e|----------------------| 
B|----------------------|
G|----------------------|
D|-2-4-4--7—7/6-6-6\5-5-|
A|-0-2-2--5-5/4-4-4\3-3-|
E|----------------------|       
There are whispers between the screams...


 Chorus riff X 4 on the last time add :
e|---------------------------------------------------------------------------|
B|---------------------------------------------------------------------------|
G|---------------------------------------------------------------------------|
D|--5555555555555555---------------------------------------------------------|
A|--3333333333333333---------------------------------------------------------|
E|---------------------------------------------------------------------------|
   I know I’ll be the one...


Guitar 1 Post - chorus
e|---------------------------------------------------------------------------|
B|---------------------------------------------------------------------------|
G|---------------------------------------------------------------------------|
D|---------------------------------------------------------------------------|
A|-4-------4-------4-------4-2/4--------4------4------4-----4—2/4------------|
E|-2--5/7--2--5/7--2--5/7--2-------5/7--2—5/7--2—5/7--2—5/7-2----------------|
Guitar 2 
e|---------------------------------------------------------------------------|
B|---------------------------------------------------------------------------|
G|-11~~--10~~--6--6--/9~~-8~~-4~~--11~~--10~~--6--6--/9~~-8~~--4-~~----------|
D|---------------------------------------------------------------------------|
A|---------------------------------------------------------------------------|
E|---------------------------------------------------------------------------|
      To make the devil cry


Heavy chords

e|------------|
B|------------|
G|------------|
D|--9---------|
A|--7--2------|
E|-----0------|
 
Solo backing 

Guitar 1 
e|---------------------------------------------------------------------------|
B|---------------------------------------------------------------------------|
G|---------------------------------------------------------------------------|
D|---------------------------------------------------------------------------|
A|-4-------4-------4-------4-2/4--------4------4------4-----4—2/4------------|
E|-2--5/7--2--5/7--2--5/7--2-------5/7--2—5/7--2—5/7--2—5/7-2----------------|

Solo

Guitar 2
e|---------------------------------------------------------------------------|
B|----17b(19)-17b(19)~~~--17-16-14-------------------------------------------|
G|---------------------------------16b17~~---16-14-----pb(16)14---16171614---|
D|-------------------------------------------------16---------------------16p|
A|---------------------------------------------------------------------------|
E|---------------------------------------------------------------------------|

e|---------------------------14-12-14-14b17~~--1412--12---------------|
B|------------------15b16b17-----------------------14—14b16~~---14-17-|
G|--------------------------------------------------------------------|
D|15p14--17-16~~------------------------------------------------------|
A|-----16-------------------------------------------------------------|
E|--------------------------------------------------------------------|

e|---------------------------------------------------------------------------|
B|-1919p17p141919p17p141717p14p121717p14p12----------------------------------|
G|-----------------------------------------151415b17~~-------------/16~~-----|
D|---------------------------------------------------------------------------|
A|------------------------------------------------------/12-/14-14-----------|
E|---------------------------------------------------------------------------|

e|---------------------------------------------------------------------------|
B|-------------------------------------------17b19-1717191715----------------|
G|--1614--14-----14—1416b17-----------------------------------16-14-16-14-14~|
D|------16—161416--16----------------16-16-----------------------------------|
A|--------------------------12-/14-------------------------------------------|
E|---------------------------------------------------------------------------|

e|--------------------------------------24b26--------------------------------|
B|---------------------------------------------------------------------------|
G|--16b17b16p14h16b17~~~~~~~~~~----------------18-16-16~~--------------------|
D|---------------------------------------------------------------------------|
A|---------------------------------------------------------------------------|
E|---------------------------------------------------------------------------|
   Guitar 1
e|---------------------------------------------------------------------------|
B|-----10~~-9~~-8~~-7~~------------------------------------------------------|
G|---------------------------------------------------------------------------|
D|---------------------------------------------------------------------------|
A|---------------------------------------------------------------------------|
E|---------------------------------------------------------------------------|
   Guitar 2
e|---------------------------------------------------------------------------|
B|---------------------------------------------------------------------------|
G|---------------------------------------------------------------------------|
D|---------------------------------------------------------------------------|
A|-----7---6---5---4---------------------------------------------------------|
E|-----5---4---3---2---------------------------------------------------------|
 
Lyrics:

One fine day in Hell 
The master told a story 
Someone lied so well 
He sent him back to Glory 

There are whispers between the screams 
That this deed can be done 
Even sinners must dream 
And I can be the one to make the Devil cry 

I can win this game 
If all things come together 
I know this sounds quite strange 
I won't be smart, just clever 

It's the law on the other side 
Just a tear lets you run 
And how many have tried? 
I know I'll be the one to make the Devil cry 

At last my time has come 
I must not give him pleasure 
I can be the one 
One chance or burn forever 

So I told him about my pain 
And the life I've been through 
He just smiled and the laughter came 
Then I told him that I love you, and the Devil cried 

Tears from his eyes 
Eyes of fire 
And the Devil cried.

Song order

Intro
Intro 2
Verse 1
Chorus
Post chorus
Heavy Chords
Verse 2
Chorus
Solo
Verse 3
Chorus
Post Chorus (drowns out)...


===============================================================================
Suggest correction
comments
print report bad tab
3 comments total.
0 reply
Törö 74 wrote on August 5 2008, 12:29 pm

Thank you!

0 reply
drodriguez3750 10 wrote on January 16 2010, 10:24 pm

The correct tuning on this is actually down 1/2 step so it's Eb/Ab/Db/Gb/Bb/Eb. So all these tabs need to come up 1/2 step.

0 reply
Metallilmeister 20 wrote on November 17 2011, 10:37 pm

The correct tuning is actually standard D. Look for this same sond under the band Heaven and Hell.

guest
You may want to rate the tab now too:
select rating
Please do not post tabs as comments. Select "correction" instead!