Oops, an error
Loading. Please wait.

Die Young Bass Tab

version 2
version 2

Whole song

Interactive

6,236 views 18 this week
1 commentread comment
1 2 3 4 5
accurate
x 4
add to favorites
launch autoscroll
font size
0
reset
guitar tuner
Tab Pro tools
  • play this tab
  • loop segment
  • change instrument
  • show fretboard
  • metronome
Autoscroll
slow
fast
+/-
esc
set tempo
stop
Contributor
Difficulty
intermediate
Title: Die Young
Artist: Black Sabbath
Album: Heaven And Hell
Composer: Dio / Iommi / Butler / Ward
Tabbed By: FLBatista

INTRO:

G|------------------------------4-----------------------------------------|X2
D|---------4-4h6-6p43-1-11-111-------4p3---------4-4h6-6p43-1-11-1114p3---|
A|-6-66-666-------------------22--4-4----6-66-666----------------------44-|
E|------------------------------------------------------------------------|

VERSE 1:

G|-------------------4---------------------------------------------|
D|-------------------------------43---------4-6-43---------43------|
A|-6666-66-6666-66-2--2-2224-44-4---6-66-66--------6-66-666--44-44-|
E|-----------------------------------------------------------------|


G|-------------------4-----------------------------------------------|
D|-------------------------------43----------------------------4-3---|
A|-6666-66-6666-66-2--2-2224-44-4---6-66-6662-22-2224-44-4444-4----4-|
E|-------------------------------------------------------------------|

MAIN RIFF:

G|------------------------------4-------------------------------------------|
D|---------4-4h6-6p43-1-11-111-------4p3---------4-4h6-6p43---------43------|
A|-6-66-666-------------------22--4-4----6-66-666-----------6-66-666--44-44-|
E|--------------------------------------------------------------------------|

VERSE 2:

G|-------------------4-------------------------------------86-------|
D|-------------------------------43---------4-6-43-----------87643--|
A|-6666-66-6666-66-2--2-2224-44-4---6-66-66--------6-66-666-------4-|
E|------------------------------------------------------------------|


G|-------------------4-------------------------------------86-------|
D|-------------------------------43--------------------------868-6\-|
A|-6666-66-6666-66-2--2-2224-44-4---6-66-662-22-2226-66-666-----8---|
E|------------------------------------------------------------------|

VERSE 3:

G|---------86--------------------------------86----------------------|
D|-4----686--864---4-------0h1-2-3-4------686--8-------------3--4----|
A|---x4---------44---x4-x2-----------x4-4---------98686-----6----4-6~|
E|-----------------------------------------------------96~-----------|

CALM VERSE:

G|-10-11-8-8~------------------(8)(8)------|
D|-----------------------------------------|
A|-----------6-6~--(6)(6)-(6)---------6-6~-|
E|-----------------------------------------|


G|------68--11-10~~----11-10---------11-10~------------9----8-----------|
D|----68---------------------11~-------------8-10-11~~----11--9---------|
A|-689--------------------------------------------------11-------98-----|
E|-----------------11------------11----------------------------9---/11~-|

INTERLUDE:

G|-------------------------------------|X2
D|-------466--------------466------4-3-|
A|-466------------9-466----------------|
E|----------667-7------------677-2-----|


G|-----4-3------------5-6-8-10-|
D|-6~~-----4-3------8----------|
A|-------------7~~-------------|
E|-----------------------------|

PLAY:

- MAIN RIFF
- VERSE 2

VERSE 4:

G|---------86-----------------------------------86---|
D|-4----686--864---4------/9-98-89---4-------686--8--|
A|---x4---------44---x4-x------9--98---x4-4----------|
E|---------------------------------------------------|

FINAL:

G|---------------8\----------------------------68/-----------------|X3
D|-----6--------6---------------------6-----678--------------------|
A|-6989-986--689---2-22-224-4(6X)/6-96-966-6-------2-22-22-4-4(6X)-|
E|----------9------------------------------------------------------|


G|---------------8\11-11----10--------------------------------------------68/-----------------|
D|-----6--------6--------13-----13-10-13--10-----------10-13-----6-----678--------------------|
A|-6989-986--689-----------------------------13-10--13-------6-96-966-6-------7-77-77-4-4(6X)-|
E|----------9---------------------------------------------------------------------------------|

G|---------------8\----------------------------68/-----------------|X2
D|-----6--------6---------------------6-----678--------------------|
A|-6989-986--689---2-22-224-4(6X)/6-96-966-6-------2-22-22-4-4(6X)-|
E|----------9------------------------------------------------------|

LEG:

h : Hammer On
p : Pull Off
/ : Slide Up
\ : Slide Down
x : Dead Note
() : Ghost Note
~ : Let Ring
comments
print report bad tab
1 comment total.
0 reply
J8K8 wrote on July 24 2014, 09:38 am

Lack of accuracy.

I want to post or [tab]
guest
You may want to rate the tab now too:
select rating
Please do not post tabs as comments. Select "correction" instead!