Oops, an error
Loading. Please wait.

Die Young Bass Tab

version 2
version 2

Whole song

Interactive

6,351 views 3 this week
2 commentsread comments
1 2 3 4 5
accurate
x 6
add to favorites
launch autoscroll
font size
0
reset
guitar tuner
Tab Pro tools
  • play this tab
  • loop segment
  • change instrument
  • show fretboard
  • metronome
×
Best way to learn
"Die Young"
Autoscroll
slow
fast
+/-
esc
set tempo
stop
Contributor
Difficulty
Tuning
intermediate
D# G# C# F# A# D#
Song: Die Young
Band: Black Sabath
Album: Heaven And Hell
Bassist: Geezer Butler
Composer: Butler/Dio/Iommi/Ward
Tabbed by: FLBatista
Tunning: Half-Step Down (Eb,Ab,Db,Gb)


MAIN RIFF:

Gb|----------------------5---------------------------------|
Db|------5--7--5p4------5----5p4-----5--7--5p4-----54------|
Ab|-7(x8)--7--7---7(x8)3--5-5---7(x8)--7--7---7(x8)--55-55-|
Eb|--------------------------------------------------------|


GUITAR SOLO:

Gb|----------------------5--------------------------------|
Db|------5--7--5p4------5----5p4-----5--7--5p4-----5p4----|
Ab|-7(x8)--7--7---7(x8)3--5-5---7(x8)--7--7---7(x8)---55~-|
Eb|-------------------------------------------------------|


VERSE 1:

Gb|-----------------------------------------------------|
Db|----------------------5p4-----5--7--5p4-----5p4------|
Ab|-7(x16)333-3-3-5-5(x5)---7(x8)--7--7---7(x8)---5(x6)-|
Eb|-----------------------------------------------------|

Gb|----------------------------------------------|
Db|----------------------5p4-----------------5-4-|
Ab|-7(x16)333-3-3-5-5(x5)---7(x7)3-3(x7)5(x8)----|
Eb|----------------------------------------------|


PLAY: 
MAIN RIFF


VERSE 2:

Gb|------------------------------------------97-------|
Db|----------------------54-----5--7--54-------987575-|
Ab|-7(x16)333-3-3-5-5(x5)--7(x8)--7--7--7(x8)---------|
Eb|---------------------------------------------------|

Gb|-----------------------------------------97-------|
Db|----------------------54-------------------987-7--|
Ab|-7(x16)333-3-3-5-5(x5)--7(x7)3-3(x7)7(x8)-----9-9-|
Eb|--------------------------------------------------|


VERSE 3 (... So live for today...):

Gb|----------7-97---------------------------7-97------------|
Db|-5------/9-9--9\-5-------2-33-4-5------/9-9--9\-54-4-----|
Ab|---x5-5------------x5-3-3---------x5-5------------7-752--|
Eb|---------------------------------------------------------|

Gb|------------|
Db|-24--5------|
Ab|------5--7~-|
Eb|------------|


- BREAK -


VERSE 4:

Gb|-11h12-9-9~------------9-------9-------------79---12-11--\-|
Db|-----------------------------------------4579--------------|
Ab|---------------7-7~-----7-7~----7-7~----7------------------|
Eb|-----------------------------------------------------------|

Gb|-------12-11-------------12-11~------------10-----9------------------|
Db|-------------12--\----------------9-11-12------12-----10-------------|
Ab|-7~-----------------7~-----------------------12--------------10-9-7--|
Eb|---------------------------------------------------------10----------|


INTERLUDE:

Gb|------------------------------------------------|x2
Db|---------577\---------5---------577\--------5-4-|
Ab|-577\----------233------577\----------233-------|
Eb|--------------------3---------------------3-----|

Gb|-------54--------4-6-7-9-11-|
Db|-/7~-----543~---------------|
Ab|----------------------------|
Eb|----------------------------|
                      . . .


PLAY: 
MAIN RIFF
VERSE 2


VERSE 5 (... So live for today...):

Gb|---------7-97--------5-54-4-----------7-97----|
Db|-5-----/9-9--9\-5--------7-7545-----/9-9--9\--|
Ab|---x5-5-----------x5------------x5-5----------|
Eb|----------------------------------------------|


CHORUS (... Die Young, die young...):

Gb|--------------79\------------------|x6
Db|---5-75----579------------------54-|
Ab|-77-7--77-7-------3-3(x6)5-5(x5)---|
Eb|-----------------------------------|

Gb|--------------79-12-11-9-11--979-7----7h9-| 
Db|---5-75----579--------------------97-9----|
Ab|-77-7--77-7-------------------------------|
Eb|------------------------------------------|

Gb|--------------79\------------------|Until the end
Db|---5-75----579------------------54-|
Ab|-77-7--77-7-------3-3(x6)5-5(x5)---|
Eb|-----------------------------------|


CAPTIONS:

 / : Slide Up
 \ : Slide Down
 h : Hammer On
 p : Pull Off
 ~ : Let Ring
 . : Staccato
 x : Percussive
comments
print report bad tab
2 comments total.
0 reply
J8K8 wrote on July 24 2014, 09:38 am

Lack of accuracy.

0 reply
FLBatista wrote on March 21 2016, 11:02 am

J8K8. Is true. I correct the tab. I believe it is better now. Thank's for the feedback.

I want to post or [tab]
guest
You may want to rate the tab now too:
select rating
Please do not post tabs as comments. Select "correction" instead!