Oops, an error
Loading. Please wait.

Dirty Women Bass Tab

version 1
version 1

Whole song

Interactive

1,658 views 3 this week
no commentswrite comment
1 2 3 4 5
accurate
x 4
add to favorites
launch autoscroll
font size
0
reset
guitar tuner
Tab Pro tools
  • play this tab
  • loop segment
  • change instrument
  • show fretboard
  • metronome
Autoscroll
slow
fast
+/-
esc
set tempo
stop
Contributor
Artist:Black Sabbath
Title:Dirty Women
Album:Technical Ecstasy
Tuning:EADG
Tabber:Justin van Uum


G--------------------------------------------|
D--------------------------------------------|
A--------------------------------/8--7-------|
E--5----3--------(3)/5mute--------------8----|

"I need a lady to help me..."
G----------------------------------------------------------|
D----------------------------------------------------------|
A-5-5-5-5-3---3---5-5-5-5-3---3---5-5-5-5-3---3------------|
E-----------5---5-----------5---5-----------5---5----------|


G------------------------------------------------------------|
D-----------8--------------------------------------5-------5-|
A------7---------8------8---8------5---(3)h5-----5---5---5---|
E-10------------------6---6----3-------------3---------3-----|

G-------------------------------------------------------------------|
D--------------------------------------------------10h12--10--------|
A-----10---(8)h10---------7-8-7------------------------------12-10\-|
E-8---------------8-----8-------8---10---8h10--8h10-----------------|

G----------------------------------------|
D----------3-5-3--x-x-------------------:|
A-5-5-3-5\------------1-1-1-3-3-3--3----:|
E----------------------------------------|

Very Fast
G-----------------------------------------------------------|
D-12--------------------7---10-----------------5-----------:|
A----12----------7-8-10--------10--------5-6-8-------------:|
E-------10--8-10------------------8--6-8--------------------|

G----------------------------------------|
D-----------5h7p5h7-----------5h7p5h7----|
A------5h7---------------5h7-------------|
E-5--5--------------5--5-----------------|

G-----------------------------|
D-----------------------------|
A----------5-5-5-5-5-5-5-5----|
E-5--5------------------------|

G----------------------------------------|
D----------3-5-3--x-x-------------------:|
A-5-5-3-5\------------1-1-1-3-3-3--3----:|
E----------------------------------------|


Ending:
G---------------------------------------------------------------|
D---------------------------------------------------------------|
A------------------------------------------10-9-10-9-10-9-10-12-|
E-10-------8h10-8h10-8---8-8-8-7---7-7-7------------------------|


Enjoy!!!
comments
print report bad tab
I want to post or [tab]
guest
You may want to rate the tab now too:
select rating
Please do not post tabs as comments. Select "correction" instead!