Oops, an error
Loading. Please wait.

Dirty Women Tab

version 1
version 1

Whole song

Interactive

Video

15,682 views 18 this week
2 commentsread comments
1 2 3 4 5
x 6
add to favorites
launch autoscroll
font size
0
reset
how to read this tab
guitar tuner
backing track
0:00
0:00
Autoscroll
slow
fast
+/-
esc
set tempo
stop
[Riff 1]
e|-----------|-----------------|
B|-----------|-----------------|
G|------2----|------2----------|
D|----2------|----2---3--2-----|
A|--0--------|--0-----------3--|
E|--------3--|-----------------|

[Chorus]
e|-------------------|
B|-------------------|
G|-------------------|
D|--7-7-----5---5----|
A|--5-5---0-3-0-3-0--|
E|-------------------|

[Riff 3]
e|-----------------|------------------|
B|-----------------|------------------|
G|-----------------|------------------|
D|-----------------|---5---7---5-7-8--|
A|--5---7---5-7-8--|------------------|
E|-----------------|------------------|

e|-----------------|---------------------|
B|-----------------|---------------------|
G|-----------------|--4b5-------5-7-8b9--|
D|-----------------|--------7------------|
A|--3---5---3-5-7--|---------------------|
E|-----------------|---------------------|

e|-----------------|------------------|
B|-----------------|------------------|
G|-----------------|------------------|
D|-----------------|---5---7---5-7-8--|
A|--5---7---5-7-8--|------------------|
E|-----------------|------------------|

e|-----------------|
B|-----------------|
G|-----------------|
D|-----------------|
A|--3---5---3-5-7--|
E|-----------------|

[Riff 4]
e|------------------------------------|
B|------------------------------------|
G|------------------------------------|
D|--7--7--5--7---------------3--5-----|
A|--5--5--3--5---3--5--3--5--1--3-----|
E|---------------1--3--1--3-----------|

[Riff 5]
e|--------------------------|----------------------------|
B|--------------------------|----------------------------|
G|--------------------------|----------------------------|
D|--------------------------|--------------7--5----------|
A|--5--7--8--5-7-8---5-7-8--|--3--5--6--3--------8--7-5--|
E|--------------------------|----------------------------|

[Bridge after riff 5]
e|-----------------|-----------------|
B|--2--2-----------|--3--2-----------|
G|--2--2-----------|--2--2-----------|
D|--2--2-----------|--2--2-----------|
A|--0--0-----------|--0--0-----------|
E|-----------------|-----------------|

e|------------------|-------------------|
B|--2--2------------|-------------------|
G|--2--2------------|-------------------|
D|--2--2------------|--5-5-5-5-5-5-5-5--|
A|--0--0------------|--5-5-5-5-5-5-5-5--|
E|------------------|--3-3-3-3-3-3-3-3--|

[Riff 6]
e|------3--2-----|------3--2-----|
B|------------3--|------------3--|
G|---------------|---------------|
D|--0------------|---------------|
A|---------------|--3------------|
E|---------------|---------------|

e|------3--2-----|------3--2-----|
B|------------3--|------------3--|
G|---------------|---------------|
D|---------------|---------------|
A|--2------------|--1------------|
E|---------------|---------------|



************************************

| b  Bend

************************************
Suggest correction
comments
print report bad tab
2 comments total.
0 reply
metaljunkie22 172 Jun 18, 2004 08:00 PM

good tab but whats the solo?

0 reply
Brian Gelvin 649 Jun 27, 2005 08:00 PM

pretty good tab 4 stars in all but this song was only written by Toni Iommi

guest
You may want to rate the tab now too:
select rating
Wanna post a correction for this tab? Suggest correction