Oops, an error
Loading. Please wait.

Dirty Women Tab

version 3
version 3

Whole song

Interactive

Video

2,684 views 1 this week
1 commentread comment
1 2 3 4 5
please rate
add to favorites
launch autoscroll
font size
0
reset
how to read this tab
guitar tuner
Tab Pro tools
  • play this tab
  • loop segment
  • change instrument
  • show fretboard
  • metronome
×
Best way to learn
"Dirty Women"
Autoscroll
slow
fast
+/-
esc
set tempo
stop
Contributor
Band: Black Sabbath
Song: Dirty Women

Standard Tuning
Email: black-sabbath69@hotmail.com 

Riff 1
|------------------------------|------------------------------|
|------------------------------|------------------------------|
|-----2-------------2----------|-----2-------------2----------|
|---2-------------2---2h3-2----|---2-------------2---2h3-2----|
|-0-------------0------------3-|-0-------------0------------3-|
|-------3~---------------------|-------3~---------------------|
 
 Riff 2a
|---------------------------------|
|---------------------------------|
|-2-2-2-2---------2-2-2-2---------|
|-0-0-0-0---------0-0-0-0---------|
|---------3-0-3-0---------3-0-3-0-|
|---------------------------------|
 
 Riff 2b
|--------------------------------------12--13--15--|
|--------------------------12--13--15--------------|
|------------------12--14--------------------------|
|------10--12--14----------------------------------|
|--12----------------------------------------------|
|--------------------------------------------------|
 
 Riff 3
|----------------------------|-----------------------------|
|----------------------------|-----------------------------|
|----------------------------|---------------5----5-7-7/9~-|
|---------------5~-7--5/7-8~-|-----------------7~----------|
|-5~-7--5/7-8~---------------|-3~-5--3/5-7~----------------|
|----------------------------|-----------------------------|

|----------------------------|------------------|
|----------------------------|------------------|
|----------------------------|------------------|
|---------------5~-7--5/7-8~-|------------------|
|-5~-7--5/7-8~---------------|-3~-5--3/5-7~-----|
|----------------------------|------------------|

 Riff 4
|----------------------------------------|
|----------------------------------------|
|----------------------------------------|
|-7--7--5--7-----------3-3-3-5-5-5---5/--|
|-5--5--3--5--3--5--3--1-1-1-3-3-3---3/--|
|-------------1--3--1--------------------|

 Solo
|---------------------------------------------------------------------|
|-15~~~--12b(14)-15---------------------------------------------------|
|-------------------14p12\10-------14-12b(13)-10h12p10----------------|
|----------------------------12-12---------------------12-10----------|
|---------------------------------------------------------------------|
|---------------------------------------------------------------------|

|---------------------------------------------------------------------|
|---------------------------------------15p12----15p12----------------|
|-------------------------------14b(16)-------14-------14-14p12----12-|
|-12~-10-12-10-12p10--------------------------------------------14----|
|--------------------12-10-10~----------------------------------------|
|---------------------------------------------------------------------|

|------------------------------------------------|
|-18~~-18p15--------------15---------------------|
|------------14b(16)r(14)----14-14\12-12p10------|
|-------------------------------------------12~--|
|------------------------------------------------|
|------------------------------------------------|

                                          
|------------------------------------------------|
|------------13---------13---------13---------13-|
|-10-12b(14)----12b(14)----12b(14)----12b(14)----|  X2
|------------------------------------------------|
|------------------------------------------------|
|------------------------------------------------|

|------------------------------------------------------------|
|----------------------------15---------15---------15-12/15~-|
|-12-12-10~-(10)/-12-14b(16)----14b(16)----14b(16)-----------|
|------------------------------------------------------------|
|------------------------------------------------------------|
|------------------------------------------------------------|

|--------------------------------------------------|
|-15p12----18~-------------------------------------|
|-------14------12/14~-12-12p10-10~-12-12p10----10-|
|--------------------------------------------12----|
|--------------------------------------------------|
|--------------------------------------------------|

|---------------------------------------------------------|
|---------------15----------------------------------------|
|-------12b(14)----12-10-12p10----10----------------------|
|-12-12------------------------12----12-12p10----10-10-12-|
|---------------------------------------------12----------|
|---------------------------------------------------------|

 Interlude
|------------------------------------------------|
|------------------------------------------------|
|------------------------------------------------|
|-------------------------------------7-5--------|  X4
|-5--7--8--5-7--8--5-7--8--3--5--7--3------8-7-5-|
|------------------------------------------------|

|------------------------------------------------|
|------------------------------------------------|
|-2---2--------2---2--------2---2----------------|
|-2---2--------2---2--------2---2-------5--5--5--|
|-0---0--------0---0--------0---0-------5--5--5--|
|---------------------------------------3--3--3--|

 Ending A
|--------------------------------------------------------------------------|
|--------------------------------------------------------------------------|
|--17b(19)~~~----5b(7)----12b(14)-12-10-12-12-10---------------------------|
|-----------------------------------------------12~--5b(7)-5-3---5-3-------|
|--------------------------------------------------------------5-----5-5~--|
|--------------------------------------------------------------------------|

 Ending B
|-------3--2------------3--2------------3--2------------3--2------|
|------------3---------------3---------------3---------------3----|
|----2---------2-----0---------0-----0---------0-----0---------0--|
|-0---------------------------------------------------------------|
|-----------------3---------------2---------------1---------------|
|-----------------------------------------------------------------|


Sequence:

Riff 1   X3
Riff 2a  X3 w/ Riff 2b X1
Riff 1   X3
Riff 2a  X3 w/ Riff 2b X1
Riff 1
Riff 3
Riff 4   X8 w/ Solo
Riff 3
Interlude
Riff 4   X10
Ending A X4 w/ Ending B X4
some other solo w/ Ending B 
comments
We did not receive enough feedback on this tab! Please rate:
print report bad tab
1 2 3 4 5
1 comment total.
0 reply
guitarman741 wrote on December 13 2008, 06:01 pm

nice tab its better than all the other ones. good job

I want to post or [tab]
guest
You may want to rate the tab now too:
select rating
Please do not post tabs as comments. Select "correction" instead!