Oops, an error
Loading. Please wait.

Electric Funeral Bass Tab

version 2
26,417 views 54 this week
11 commentsread comments
1 2 3 4 5
excellent!
x 26
add to favorites
launch autoscroll
font size
0
reset
guitar tuner
Tab Pro tools
  • play this tab
  • loop segment
  • change instrument
  • show fretboard
  • metronome
Autoscroll
slow
fast
+/-
esc
set tempo
stop
Contributor
ELECTRIC FUNERAL
BLACK SABBATH
PARANOID ALBUM 

- STANDARD TUNING
- BASS

INTRO
G-----9--7----------------|  |-----9--7-----------------|
D----------9----7\--------|  |----------9----7-8\-------|
A-7-7---------------------|  |-7-7----------------------|
E-------------------2-3-2-|x2|--------------------2-3-2-|x1

G-----9--7----------------|
D----------9----7\--------|
A-7-7---------------------|
E-------------------2-3-2-|x1

VERSE
G-------------|  |-------------------|
D---9~~8~~7-5-|  |---------9~~8~~7-5-|
A-7-----------|  |-7-7-7-7-----------|
E-------------|x1|-------------------|x7

THEN:
INTRO RIFF
VERSE RIFF
INTRO RIFF

PRE-BRIDGE
G||----------------------------------------------------------------------||
D||.--------------------------------------------------------------------.||
A||.-7-7-7-7-7-7-7-7-7-7-7-7-7-7-7-7-7-7-7-7-7-7-7-7-7-7-7-7-7-7-7-7-7--.||
E||----------------------------------------------------------------------||

          GUITAR ONLY
G-------||------------|
D-------||------------|
A-7-----||------------|
E-------||------------|
HOLD NOTE

BRIDGE/INTERLUDE
G------------------|---------------|| |---------7-9-|--------------|
D----------5-5-5-0-|-------5-5-5-0-|| |---5-7-9-----|---6-7-8-7-5--|
A-2/-7-5-7---------|-7-5-7---------|| |-7-----------|-7------------|
E------------------|---------------|| |-------------|--------------|x2

G---------------|  |---------7-9-|-------------||
D-------5-5-5-0-|  |---5-7-9-----|---6-7-8-7-5-||
A-7-5-7---------|  |-7-----------|-7-----------||
E---------------|x4|-------------|-------------||x2

G-------------|  |--------------|  |------------|-------|
D-------------|  |---------5----|  |---------5~-|-------|
A-7-6-5-------|  |-5-5-5-7---7--|  |-5-5-5-7----|-------|
E-------7-6-5-|x4|--------------|x2|------------|-------|
"Electric funeral."

THEN:
INTRO RIFF
VERSE RIFF
INTRO RIFF
VERSE RIFF FADE OUT TILL END OF SONG.

THANKS.
ratbollocks.
comments
print report bad tab
11 comments total. Showing first comments.
+1 reply
Hangar_18 wrote on December 29 2005, 04:23 pm

This sounds great! keep up the good work!

0 reply
kulangot wrote on October 20 2006, 11:18 pm

good job...

-1 reply
Dodgerscoral wrote on January 2 2008, 12:01 am

where u play
G-----|-----|
D-----5-5-5-0-|-----5-5-5
-0-|

A-2/-7-5-7-----|-7-5-7-----|

its should be
D-----5-5-5-5-0|
A-7-5-7-----|
listen to it he plays
it 4 times not three ull hear the extra note!!

THEN THIS PART is also missing
something
G|-----9--7-----|
D|-----9----7-8\-----|
A|-7-7-----|
E|-----
-----2-3-2-|

i play it like this cuz it doesnt sound like theres a slide when he does this
variation
G|-----9--7-----|
D|-----9-7-8-9-----|
A|-7-7-----|
E|-----
-----2-3-2-|

this whole thing is pretty damn good though just giving my 2 cents!!

I want to post or [tab]
guest
You may want to rate the tab now too:
select rating
Please do not post tabs as comments. Select "correction" instead!