Oops, an error
Loading. Please wait.

Electric Funeral Tab

version 4
version 4
4,461 views 12 this week
8 commentsread comments
1 2 3 4 5
worth learning
x 8
add to favorites
launch autoscroll
font size
0
reset
how to read this tab
guitar tuner
Autoscroll
slow
fast
+/-
esc
set tempo
stop
Help us to improve Ultimate-Guitar.com Take our survey!
×
Author
Artist:Black Sabbath
Album:Paranoid
Song:ELectric Funeral
Tabbed By: Guitarskater55

Intro
|---------------------------|
|---------------------------|
|---------------------------| x4
|-----10h11-10v-------------|
|-8-8-----------8-10h11-10v-|
|---------------------------|

Verse 1
|----------------------|
|----------------------|
|----------------------| x8
|---------10v-9-9------|
|-8-8-8-8---------11v--|
|----------------------|
|Reflex in the sky|              |warn you you're gonna die|
|Storm coming you'd better hide| |from the atomic tide|
|Flashes in the sky|             |turns houses into sties|
|Turns people into clay|         |radiation minds decay|

Bridge
|---------------------------|
|---------------------------|
|---------------------------| x4
|-----10h11-10v-------------|
|-8-8-----------8-10h11-10v-|
|---------------------------|

Verse 2
|----------------------|
|----------------------|
|----------------------| x8
|---------10v-9-9------|
|-8-8-8-8---------11v--|
|----------------------|
|Robot minds of robot slaves|  |lead them to atomic rage|
|plastic flowers, melting sun| |fading moon falls upon|
|dying world of radiation|     |victims of mad frustration|
|Burning globe of oxy'n fire|  |like electric funeral pyre|

Bridge
|---------------------------|
|---------------------------|
|---------------------------| x4
|-----10h11-10v-------------|
|-8-8-----------8-10h11-10v-|
|---------------------------|

|--------------|
|--------------|
|--------------|
|--------------|
|-8-let ring---|
|--------------|

|--------|
|--------|
|--------|
|-10-9-8-| x5
|-8--7-6-|
|--------|

|----------12-12-12-|
|----------12-12-12-|
|----------12-12-12-| x4
|-10-8-10-----------|
|-8--6-8------------|
|-------------------|

|------------------------------|
|----9-11-9-13----9-11-12-11-9-|
|-10-----------10--------------| x2
|------------------------------| 
|------------------------------|
|------------------------------|
|Buildings crashing down to a cracking ground|
|Rivers turn to wood, ice melting to flood|

|----------12-12-12-|
|----------12-12-12-|
|----------12-12-12-| x4
|-10-8-10-----------|
|-8--6-8------------|
|-------------------|

|------------------------------|
|----9-11-9-13----9-11-12-11-9-|
|-10-----------10--------------| x2
|------------------------------| 
|------------------------------|
|------------------------------|
|Earth lies in death bed, clouds cry water dead|
|Tearing life away, here's the burning pay|

|-13-13-13-16-|     Electric Funeral
|-------------|     Electric Funeral
|-------------| x4  Electric Funeral
|-------------|     Electric Funeral
|-------------|
|-------------|

|-----------|
|-----------|
|-7-7-7-(9)-| x3    On the last one let the 9 ring
|-----------|
|-----------|
|-----------|

|---------------------------|
|---------------------------|
|---------------------------| x4
|-----10h11-10v-------------|
|-8-8-----------8-10h11-10v-|
|---------------------------|

Verse 3
|----------------------|
|----------------------|
|----------------------| x8
|---------10v-9-9------|
|-8-8-8-8---------11v--|
|----------------------|
|And so in the sky|              |shines the electric eye|
|supernatural king takes|        |earth under his wing|
|Heaven's golden chorus sings|   |Hell's angels flap their wings|
|Evil souls fall to Hell|        |ever trapped in burning cells!|

Outro
|---------------------------|
|---------------------------|
|---------------------------| x4
|-----10h11-10v-------------|
|-8-8-----------8-10h11-10v-|
|---------------------------|

|----------------------|
|----------------------|
|----------------------| x8 or until fade
|---------10v-9-9------|
|-8-8-8-8---------11v--|
|----------------------|
Suggest correction
What's this?
You can suggest a correction to this tab. Community and Mods will review your correction and vote to approve or reject it.
comments
print report bad tab
8 comments total. Showing first comments.
0 reply
mikedeit 334 wrote on June 14 2005, 12:00 am

I have no where to start. The intro is too high, he plays the intro like this
e--------------------------
B--------------------------
G--------------------------
D--------------------------
A------2-3-2~~~------------
E--0-0------------0--2-3-2-

The verse is also too high
e-------------------
B-------------------
G-------------------
D-------------------
A-----2---1---0-----
E--0------------3b--

The chords are too high also
e--------------|------------12-12-12-12--
B--------------|------------12-12-12-12--
G--------------|------------12-12-12-12--
D--------------|-------------------------
A--14--13--12--|--14-12-14---------------
E--12--11--10--|--12-10-12---------------

The solo is pretty close, but is in the wrong position point, and sounds a half step higher than it is played.
e------------------|---------------------
B--------------12--|-----------12--------
G-----12-14-12-----|-----12-14----12-----
D--14--------------|--14-------------14--
A------------------|---------------------
E------------------|---------------------

The one part where he goes, E_lec_tric Fune_ral, is a measure of repeating unison bends
e--12--12--12--12/--
B--15b-15b-15b-15b/-
G-------------------
D-------------------
A-------------------
E-------------------

The next measure is pretty close, but all also unison bends.
e----------------
B--3--3--3--5\/-- You were right about the last one ringing.
G--5b-5b-5b-7b\/-
D----------------
A----------------
E----------------

The outro is the same as the intro, TOO HIGH!!!

But these are all just some tips.

Overall, I would rate this tab one star, but I see how some people say it is too low, and play it an octave higher.

I will give you this
1 star for effort
1 star for tabbing it
+1 star for great lyrics (even though they don't count, but who cares)

Comes out to a grand total of 3 stars.

0 reply
ryangardenour 30 wrote on March 30 2006, 05:26 pm

Everything's wrong!

0 reply
sickXguitarist 27 wrote on July 24 2006, 10:29 pm

yeah this sucked

guest
You may want to rate the tab now too:
select rating
Please do not post tabs as comments. Select "correction" instead!