Oops, an error
Loading. Please wait.

Electric Funeral Bass Tab

version 7
version 7

Whole song

227 views 6 this week
no commentswrite comment
1 2 3 4 5
2 more votes to show rating
add to favorites
launch autoscroll
font size
0
reset
guitar tuner
×
Best way to learn
"Electric Funeral"
Autoscroll
slow
fast
+/-
esc
set tempo
stop
Author
Difficulty
  follow
intermediate
About this tab version
I"ve been correct intro and verses. Was this info helpful? Yes No
MAIN RIFF

G---------------------|
D---------------------|
A-----2-3-2-----------|
E-0-0---------0--2-3-2|(X4)

VERSE

G-------------------------------------|
D---9^^-8^^-7-5------------9^^-8^^-7-5|
A-7--------------7-7-7-7-7------------|
E-------------------------------------|repeat

Next:

MAIN RIFF(X4)

VERSE repeat

MAIN RIFF(X4)

1st BRIDGE

G---------------------------------------------------|
D---------------------------------------------------|
A-77777777777777777777777777777777777777777777777777|
E---------------------------------------------------|

Next:

GUITAR ONLY

NEXT BRIDGE

G--------------|     
D-------5555555|
A-7-5-7--------|
E--------------|(X2) 

G----------7-9|------------|
D---5-7-9-----|---6-7-8-7-5|
A-7-----------|-7----------|
E-------------|------------|(X2)

G--------------|     
D-------5555555|
A-7-5-7--------|
E--------------|(X4)

G----------7-9|------------|
D---5-7-9-----|---6-7-8-7-5|
A-7-----------|-7----------|
E-------------|------------|(X2)

G------------|
D------------|
A-7-6-5------|
E-------7-6-5|(X4)
Electric funeral....

G------------|
D---------5--|
A-5-5-5-7---7|
E------------|(X2)

G-------------|
D---------5^^^|
A-5-5-5-7-----|
E-------------|

MAIN RIFF
VERSE 
MAIN RIFF
VERSE fade out
Suggest correction
Give kudos to tab author, rate the tab!
1 2 3 4 5
comments
print report bad tab
guest
You may want to rate the tab now too:
select rating
Wanna post a correction for this tab? Suggest correction