Oops, an error
Loading. Please wait.

Electric Funeral Bass Tab

version 7
version 7

Whole song

1,537 views 1 this week
3 commentsread comments
1 2 3 4 5
3 more votes to show rating
add to favorites
launch autoscroll
font size
0
reset
guitar tuner
Autoscroll
slow
fast
+/-
esc
set tempo
stop
Help us to improve Ultimate-Guitar.com Take our survey!
×
Author
Difficulty
intermediate
Electric Funeral
tabbed by mudthebassist

I made this tab because it was depressing seeing all the bad tabs floating around the 
and only a small amount of them being anywhere near correct. So I tabbed it out myself by 
after many replays and watching tons of live vids, enjoy.

~ Vibrato
12/1 slide from said first note to second note
/12 slide up to note from any lower note

Standard tuning

Intro (0:00)
G|-------------------------------------------------|
D|-------------------------------------------------|
A|------7-6-5~-------------------------------------|
E|-0-0----------12/1--2-3-2~-----------------------|

G|-------------------------------------------------|
D|-------------------------------------------------|
A|------7-6-5~-------------------------------------|
E|-0-0----------12/1--2-3-2~-----------------------|

G|-------------------------------------------------|
D|-------------------------------------------------|
A|------7-6-5~-6-----------------------------------|
E|-0-0-----------12/1--2-3-2~----------------------|

G|-------------------------------------------------|
D|-------------------------------------------------|
A|------7-6-5~-------------------------------------|
E|-0-0----------12/1--2-3-2~-----------------------|

Verse (0:14)

G|-------------------------------------------------|
D|-------------------------------------------------|
A|----------2~-1~-0--------------------------------|
E|-0-0-0-0----------3~-----------------------------|

G|-------------------------------------------------|
D|-------------------------------------------------|
A|----------2~-1~-0--------------------------------|
E|-0-0-0-0----------3~-----------------------------|

G|-------------------------------------------------|
D|-------------------------------------------------|
A|----------2~-1~-0--------------------------------|
E|-0-0-0-0----------3~-----------------------------|

G|-------------------------------------------------|
D|-------------------------------------------------|
A|----------2~-1~-0--------------------------------|
E|-0-0-0-0----------3~-----------------------------|

G|-------------------------------------------------|
D|-------------------------------------------------|
A|----------2~-1~-0--------------------------------|
E|-0-0-0-0----------3~-----------------------------|

G|-------------------------------------------------|
D|-------------------------------------------------|
A|----------2~-1~-0--------------------------------|
E|-0-0-0-0----------3~-----------------------------|

G|-------------------------------------------------|
D|-------------------------------------------------|
A|----------2~-1~-0--------------------------------|
E|-0-0-0-0----------3~-----------------------------|

G|-------------------------------------------------|
D|-------------------------------------------------|
A|----------2~-1~-0--------------------------------|
E|-0-0-0-0----------3~-----------------------------|

Chorus (0:45)
G|-------------------------------------------------|
D|-------------------------------------------------|
A|------7-6-5~-------------------------------------|
E|-0-0----------12/1--2-3-2~-----------------------|

G|-------------------------------------------------|
D|-------------------------------------------------|
A|------7-6-5~-------------------------------------|
E|-0-0----------12/1--2-3-2~-----------------------|

G|-------------------------------------------------|
D|-------------------------------------------------|
A|------7-6-5~-6-----------------------------------|
E|-0-0-----------12/1--2-3-2~----------------------|

G|-------------------------------------------------|
D|-------------------------------------------------|
A|------7-6-5~-------------------------------------|
E|-0-0----------12/1--2-3-2~-----------------------|

Verse (1:02)
G|-------------------------------------------------|
D|-------------------------------------------------|
A|----------2~-1~-0--------------------------------|
E|-0-0-0-0----------3~-----------------------------|

G|-------------------------------------------------|
D|-------------------------------------------------|
A|----------2~-1~-0--------------------------------|
E|-0-0-0-0----------3~-----------------------------|

G|-------------------------------------------------|
D|-------------------------------------------------|
A|----------2~-1~-0--------------------------------|
E|-0-0-0-0----------3~-----------------------------|

G|-------------------------------------------------|
D|-------------------------------------------------|
A|----------2~-1~-0--------------------------------|
E|-0-0-0-0----------3~-----------------------------|

G|-------------------------------------------------|
D|-------------------------------------------------|
A|----------2~-1~-0--------------------------------|
E|-0-0-0-0----------3~-----------------------------|

G|-------------------------------------------------|
D|-------------------------------------------------|
A|----------2~-1~-0--------------------------------|
E|-0-0-0-0----------3~-----------------------------|

G|-------------------------------------------------|
D|-------------------------------------------------|
A|----------2~-1~-0--------------------------------|
E|-0-0-0-0----------3~-----------------------------|

G|-------------------------------------------------|
D|-------------------------------------------------|
A|----------2~-1~-0--------------------------------|
E|-0-0-0-0----------3~-----------------------------|

Chorus (1:33)
G|-------------------------------------------------|
D|-------------------------------------------------|
A|------7-6-5~-------------------------------------|
E|-0-0----------12/1--2-3-2~-----------------------|

G|-------------------------------------------------|
D|-------------------------------------------------|
A|------7-6-5~-------------------------------------|
E|-0-0----------12/1--2-3-2~-----------------------|

G|-------------------------------------------------|
D|-------------------------------------------------|
A|------7-6-5~-6-----------------------------------|
E|-0-0-----------12/1--2-3-2~----------------------|

G|-------------------------------------------------|
D|-------------------------------------------------|
A|------7-6-5~-------------------------------------|
E|-0-0----------12/1--2-3-2~-----------------------|

Bridge (1:48)
G|-------------------------------------------------|
D|-------------------------------------------------|
A|-------------------------------------------------|
E|-0-0-0-0-0-0-0-0-0-0-0-0-0-0-0-0-0-0-0-0-0-------|
etc. etc. just do this along to the beat of the bass drum until everything stops

Riff (2:21)
G|-------------------------------------------------|
D|-------------------------------------------------|
A|---------------10-10-1010------------------------|
E|-12/1-12-10-12-----------10----------------------|

G|-------------------------------------------------|
D|-------------------------------------------------|
A|----------10-10-1010-----------------------------|
E|-12-10-12-----------10---------------------------|

Solo (2:25)
G|-------------------------------------------------|
D|-------------------------------------------------|
A|-----10-12-10-12-14-------10-12-12/14-12-10------|
E|-/12------------------/12------------------------|

G|-------------------------------------------------|
D|-------------------------------------------------|
A|-----10-12-10-12-14-------10-12-12/14-12-10------|
E|-/12------------------/12------------------------|

Riff (2:32)
G|-------------------------------------------------|
D|-------------------------------------------------|
A|----------10-10-1010-----------------------------|
E|-12-10-12-----------10---------------------------|

G|-------------------------------------------------|
D|-------------------------------------------------|
A|----------10-10-1010-----------------------------|
E|-12-10-12-----------10---------------------------|

G|-------------------------------------------------|
D|-------------------------------------------------|
A|----------10-10-1010-----------------------------|
E|-12-10-12-----------10---------------------------|

G|-------------------------------------------------|
D|-------------------------------------------------|
A|----------10-10-1010-----------------------------|
E|-12-10-12-----------10---------------------------|

Solo (2:41
G|-------------------------------------------------|
D|-------------------------------------------------|
A|-----10-12-10-12-14-------10-12-12/14-12-10------|
E|-/12------------------/12------------------------|

G|-------------------------------------------------|
D|-------------------------------------------------|
A|-----10-12-10-12-14-------10-12-12/14-12-10------|
E|-/12------------------/12------------------------|

Solo B (2:49) [This is the part where he says "Electric Funeral"]
G|-------------------------------------------------|
D|-------------------------------------------------|
A|---7~-6-5-4-3-2----------------------------------|
E|-------------------------------------------------|

G|-------------------------------------------------|
D|-------------------------------------------------|
A|---7~-6-5-4-3-2----------------------------------|
E|-------------------------------------------------|

G|-------------------------------------------------|
D|-------------------------------------------------|
A|---7~-6-5-4-3-2----------------------------------|
E|-------------------------------------------------|

G|-------------------------------------------------|
D|-------------------------------------------------|
A|---7~-6-5-4-3-2----------------------------------|
E|-------------------------------------------------|

Solo C (2:58)
G|-------------------------------------------------|
D|-------------------------------------------------|
A|---5-5-5--7-7/15/1-------------------------------|
E|-------------------------------------------------|
(Just slide up really high and then really low)

G|-------------------------------------------------|
D|-------------------------------------------------|
A|---5-5-5--7-7/15/1-------------------------------|
E|-------------------------------------------------|

G|-------------------------------------------------|
D|-------------------------------------------------|
A|---5-5-5--7~-------------------------------------|
E|-------------------------------------------------|

Chorus (3:07)
G|-------------------------------------------------|
D|-------------------------------------------------|
A|------7-6-5~-------------------------------------|
E|-0-0----------12/1--2-3-2~-----------------------|

G|-------------------------------------------------|
D|-------------------------------------------------|
A|------7-6-5~-------------------------------------|
E|-0-0----------12/1--2-3-2~-----------------------|

G|-------------------------------------------------|
D|-------------------------------------------------|
A|------7-6-5~-6-----------------------------------|
E|-0-0-----------12/1--2-3-2~----------------------|

G|-------------------------------------------------|
D|-------------------------------------------------|
A|------7-6-5~-------------------------------------|
E|-0-0----------12/1--2-3-2~-----------------------|

Verse (3:22)
G|-------------------------------------------------|
D|-------------------------------------------------|
A|----------2~-1~-0--------------------------------|
E|-0-0-0-0----------3~-----------------------------|

G|-------------------------------------------------|
D|-------------------------------------------------|
A|----------2~-1~-0--------------------------------|
E|-0-0-0-0----------3~-----------------------------|

G|-------------------------------------------------|
D|-------------------------------------------------|
A|----------2~-1~-0--------------------------------|
E|-0-0-0-0----------3~-----------------------------|

G|-------------------------------------------------|
D|-------------------------------------------------|
A|----------2~-1~-0--------------------------------|
E|-0-0-0-0----------3~-----------------------------|

G|-------------------------------------------------|
D|-------------------------------------------------|
A|----------2~-1~-0--------------------------------|
E|-0-0-0-0----------3~-----------------------------|

G|-------------------------------------------------|
D|-------------------------------------------------|
A|----------2~-1~-0--------------------------------|
E|-0-0-0-0----------3~-----------------------------|

G|-------------------------------------------------|
D|-------------------------------------------------|
A|----------2~-1~-0--------------------------------|
E|-0-0-0-0----------3~-----------------------------|

G|-------------------------------------------------|
D|-------------------------------------------------|
A|----------2~-1~-0--------------------------------|
E|-0-0-0-0----------3~-----------------------------|

Chorus (3:52)
G|-------------------------------------------------|
D|-------------------------------------------------|
A|------7-6-5~-------------------------------------|
E|-0-0----------12/1--2-3-2~-----------------------|

G|-------------------------------------------------|
D|-------------------------------------------------|
A|------7-6-5~-------------------------------------|
E|-0-0----------12/1--2-3-2~-----------------------|

G|-------------------------------------------------|
D|-------------------------------------------------|
A|------7-6-5~-6-----------------------------------|
E|-0-0-----------12/1--2-3-2~----------------------|

G|-------------------------------------------------|
D|-------------------------------------------------|
A|------7-6-5~-------------------------------------|
E|-0-0----------12/1--2-3-2~-----------------------|

Outro (4:09)
G|-------------------------------------------------|
D|-------------------------------------------------|
A|----------2~-1~-0--------------------------------|
E|-0-0-0-0----------3~-----------------------------|

G|-------------------------------------------------|
D|-------------------------------------------------|
A|----------2~-1~-0--------------------------------|
E|-0-0-0-0----------3~-----------------------------|

G|-------------------------------------------------|
D|-------------------------------------------------|
A|----------2~-1~-0--------------------------------|
E|-0-0-0-0----------3~-----------------------------|

G|-------------------------------------------------|
D|-------------------------------------------------|
A|----------2~-1~-0--------------------------------|
E|-0-0-0-0----------3~-----------------------------|

Repeat until thoroughly faded.

And that's my tab, I'm positive this is at least 99% correct, if I didn't get the 
crashing down" solo part right.

Look for live vids on YouTube and listen to the bass before you take a glance and downvote.

-mud
Suggest correction
Give kudos to tab author, rate the tab!
1 2 3 4 5
comments
print report bad tab
3 comments total.
0 reply
derekwalden_-33 174 Jun 16, 2008 12:30 AM

Im not gonna downgrade you, this is your interpretation of the song. But, Geezer played chords for the verse, and the chorus is much higher. The rest looked pretty good though. Keep up the good work.

0 reply
bassgirl26 10 Jun 29, 2008 12:13 PM

dont take this offensively but...
this is the worst i've seen

Im only 13 and even i know this isnt right

+1 reply
mudthebassist 31 Aug 28, 2008 07:58 AM

You guys will have to excuse me, this was the first tab I'd ever made, and since then my ear has become substantially better. I've been able to tab out more complicated stuff and I've come to realize that this tab, quite frankly, is terrible. It's been over a year now, if I sat down and tried again this tab would be leaps and bounds better. But I don't care now. If there's a way to remove this tab, I will.

guest
You may want to rate the tab now too:
select rating
Wanna post a correction for this tab? Suggest correction