Oops, an error
Loading. Please wait.

Fairies Wear Boots Bass Tab

version 2
version 2
8,316 views 18 this week
1 commentread comment
1 2 3 4 5
please rate
add to favorites
launch autoscroll
font size
0
reset
guitar tuner
Tab Pro tools
  • play this tab
  • loop segment
  • change instrument
  • show fretboard
  • metronome
×
Best way to learn
"Fairies Wear Boots"
Autoscroll
slow
fast
+/-
esc
set tempo
stop
Contributor
This is a really cool song, my fave from Black Sabbath.

Errors or suggestions, Nikki_Sixxty_Nine@hotmail.com

Intro:

G----------------------------------------------------|
D----------------------------------------------------|
A--------------5-3----5------------5-3--5-3----------|
E--/5-3-0--0--------5---5--3--3-------5-----5--------|

Afterwards:

G------------------------------------------------------|
D-----------7-5---5-7---------7-5-----------------5----|
A---------------7----------------7-6-5-6-7-6-5-h7------|
E--5-5-5-5----------------5----------------------------|

(Continues)

G---------------------------------------------------------|
D----7-5--7---5-7-5-------5--------7-5---7-5---7-5--------|
A-------7---7-------7-5-7--------------7-----7-----7-5----|
E--5------------------------------------------------------|

Second part (Still no vocals, and its not the main part, either)

G-------------------------------------------------|
D-----------7--9-----9-7---9---7-9-7-------7------|   X 2
A-------6-9---9-9-7------9---9-------9-7-9--------|
E---7-7------------7------------------------------|

(Drum Fills Here)

G---------------------------|
D---------------------------|
A--7--5---------7-5---------|
E--------7-5---------7-5----|

Afterwards:

G---------------------------------|--------------------------------| Do This
D-----------11-9----11-9----7-9-7-|11-9---11--9-11-9-------9-------| Part twice
A---------11-----11------11-------|-----11--11------11-9-11--------| then return
E--7-8-9--------------------------|--------------------------------| to the drum
                                                                 fill part.

Main riff:

G--------------------------|
D----------5-5-------------|
A--------------------------|   Repeat as many times as needed. And its alot.
E--3--6--3------3-6-3-1----|

Solo, outro:

G--------------------------------------------|
D--4-4-2-4-4-2-44----------------------------|
A-----------------2-4-2-4--------------------|
E--------------------------3-2 (Hold note)---|

Once again, questions, comments, yadayadayada Nikki_Sixxty_Nine@hotmail.com
comments
We did not receive enough feedback on this tab! Please rate:
print report bad tab
1 2 3 4 5
1 comment total.
0 reply
JONTHEBASSKUNAC wrote on March 6 2012, 03:16 am

shit tab bro.............................

I want to post or [tab]
guest
You may want to rate the tab now too:
select rating
Please do not post tabs as comments. Select "correction" instead!