Oops, an error
Loading. Please wait.

God Is Dead Tab

version 1
version 1

Whole song

Interactive

31,740 views 27 this week
2 commentsread comments
1 2 3 4 5
excellent!
x 9
add to favorites
launch autoscroll
font size
0
reset
how to read this tab
guitar tuner
Autoscroll
slow
fast
+/-
esc
set tempo
stop
Help us to improve Ultimate-Guitar.com Take our survey!
×
Author
Difficulty
Tuning
novice
D# G# C# F# A# D#
Tabbed by: tele.kom
E-mail: telee.kom@gmail.com
Tuning: Half-Step Down

[Intro & Verse]                
e|-----------------|    
B|-----------------|    
G|-------0-------0-|    
D|-----9-------8---|   
A|---7-------7-----|    
E|-0-------0-------|    

[Intro Variation]
e|------------------|
B|------------------|
G|--------0-------0-|
D|-----10-------8---|
A|---7--------7-----|
E|-0--------0-------|

[Pre-Verse]
e|-----------------------------------------------|
B|-----------------------------------------------|
G|-----------------------------------------------|
D|-7/9------7/9--11-12---7/9------7/9--11-12--7--|
A|-5/7------5/7--9--10---5/7------5/7--9--10--5--|
E|-----------------------------------------------|

e|------------------------------------------------|
B|------------------------------------------------|
G|------------------------------------------------|
D|-7/9------7/9--11-12---7/9------7/9-------------|
A|-5/7------5/7--9--10---5/7------5/7--8-7--5--2--|
E|-------------------------------------6-5--3--0--|

[Chorus]
e|---------------------------------------------------------------|
B|---------------------------------------------------------------|
G|-5----4--------------------------------------------------------|
D|-5----4--5-4-2------------------------2------------------------|
A|-3----2--5-4-2----7-6-5---------------2----7-6-5---------------|
E|---------3-2-0--0-------7-6v--0-6-7v--0--0-------7-6v--0-6-5v--| 2x

[Verse 2]
(w/Harmonizer)
e|-------------------------------------------|
B|-------------------------------------------|
G|-----0-------0-----------------------------|
D|---4---4---4---4-----7--7---7---7---11/12--|
A|-3-------3-------0-0-5--5-0-5-0-5-0--9/10--|
E|-------------------------------------------|
                   * *
e|----------------------------------------------|
B|----------------------------------------------|
G|-----0-------0--------------------------------|
D|---4---4---4---4------7--7---7--11/12/11-7-5--|
A|-3-------3-------0-0--5--5-0-5---9/10/10-5-3--|
E|----------------------------------------------|
                   * *
e|------------------------------------|
B|------------------------------------|
G|-----0-------0----------------------|
D|---4---4---4---4-----7--7-7-7-12/7--|
A|-3-------3-------0-0-5--5-5-5-10/5--|
E|------------------------------------|
                   * *
[Verse 2]
(w/Harmonizer)
e|---------------------------|
B|---------------------------|
G|---------------------------|
D|---------------------------|
A|--------7s10v--------7p6v--|
E|-0--0-0-------0--0-0-------|

[Chorus & Pre-Verse]

[Breakdown]
e|--------------------------------------|
B|--------------------------------------|
G|--------------------------------------|
D|-------------5------------------------|
A|------7-5-7v---7-5----5---------------|
E|-0--0--------------7v---7-6-5v-0-3-5--| 6x

[Breakdown Verse]
e|------------------------------------------------------|
B|------------------------------------------------------|
G|------------------------------------------------------|
D|------------------------------------------------------|
A|-----5-----5------5-----7/8-----5-----5----5-----8/7--|
E|-0-0-3-0-0-3-0--0-3-0-0-5/6-0-0-3-0-0-3-0--0-0-0-6/5--|
   * *   * *   *  *   * *     * *   * *   *    * *

[Pre-solo]
e|-----------------------------|
B|-----------------------------|
G|-----------------------------|
D|-9--11/12---12/14-7-----7/9--|
A|-7---9/10---10/12-5---0-5/7--|
E|-----------------------------|

[Solo]
e|--------------------------------------------------|
B|--------------------------------------------------|
G|-----------19-16v--14b16-14b16-14b16-12-14-12-----|
D|-14--16-17------------------------------------14--|
A|--------------------------------------------------|
E|--------------------------------------------------|

e|--------------------------------------------------------------------------------|
B|-----15-15-------15-------15----------------------------------------------------|
G|--14b16----14b16----14b16----14b16-12-14-14b16-14-12--11h12p11-----------12-----|
D|---------------------------------------------------------------12-----12----14--|
A|-------------------------------------------------------------------14-----------|
E|--------------------------------------------------------------------------------|

[Breakdown & Chorus]



************************************

| h  Hammer-on
| p  Pull-off
| b  Bend
| /  Slide up 

************************************
Suggest correction
comments
print report bad tab
2 comments total.
+5 reply
ironmanben 2,295 wrote on April 22 2013, 08:34 pm

Well this song sure got tabbed fast. I think that's a definite indication it's a Sabbath classic. Looks good.

0 reply
rodney.smith.79 10 wrote on April 24 2015, 06:26 pm

Great job bro! I like the simplicity.

guest
You may want to rate the tab now too:
select rating
Please do not post tabs as comments. Select "correction" instead!