Oops, an error
Loading. Please wait.

Heaven And Hell Bass Tab

version 2
version 2
63,572 views 54 this week
5 commentsread comments
1 2 3 4 5
x 24
add to favorites
launch autoscroll
font size
0
reset
guitar tuner
Autoscroll
slow
fast
+/-
esc
set tempo
stop
Help us to improve Ultimate-Guitar.com Take our survey!
×
Author
Song: Heaven and Hell
Band: Black Sabbath
Tabbed by: cianormo

I tabbed this one half-step down because it seems to fit with the flat notes. It can be 
in standard tuning if you want. There’s a lot here but that’s because Geezer thrown in 
of scales.

Chorus A
Gb|-------------------------------------------9--7-----------------|
Db|-------------------------------7-----------------9--7-----------|
Ab|-7---9-10-------------7---9-10---10-9-7---------------10--9-----|
Eb|-----------8------10--------------------------------------------|

Gb|----------------------------------------------------------------|
Db|-------------------------------7--------------------------------|
Ab|-7---9-10-------------7---9-10---10-9-7--------------------7-7--|
Eb|-----------8------10--------------------------------------------|

Verse A
Gb|----------------------------------------------------------------|
Db|----------------------------------------------------------------|
Ab|-7---7-7-7---7-7-7---7-7-7---7-7-7---7-7-7---7-7-7---7-7-7---7-7|
Eb|----------------------------------------------------------------|

Verse B
Gb|-------------------------------------------------------------7-9|
Db|---------------------------------------------------------7-9----|
Ab|-7---7-7-7---7-7-7---7-7-7---7-7-7---7-7-7---7-7-7---7-7--------|
Eb|----------------------------------------------------------------|

Verse C
Gb|----------------------------------------------------------------|
Db|----------------------------------------------------------------|
Ab|-7---7-7-7---7-7-7---7-7-7---7-7-7---7-7-7---7-7-7---7-710-9-7--|
Eb|--------------------------------------------------------------10|

Pre Chorus A
Gb|----------------------------------------------------------------|
Db|----------------------------------------------------------------|
Ab|--------------------10-9-7--------------------------------------|
Eb|-8----------8--------------10------10------------10-------------|

Pre Chorus B
Gb|----------------------------------------------------------------|
Db|----------------------------------------------------------------|
Ab|--------------------10-9-7------------------------------10-9-7--|
Eb|-8----------8--------------10------10----------10-------------10|

Chorus B
Gb|-------------------------------------------9--7-----------------|
Db|-------------------------------7-----------------9--7-----------|
Ab|-7---9-10-------------7---9-10---10-9-7---------------10--9-----|
Eb|-----------8------10--------------------------------------------|

Gb|----------------------------------------------------------------|
Db|-------------------------------7--------------------------------|
Ab|-7---9-10-------------7---9-10---10-9-7--------------------7-9--|
Eb|-----------8------10--------------------------------------------|

Bridge A
Gb|--------9----------------------------7-----7--------------------|
Db|-7-----------------------------7--------7-----7---5--------7-8--|
Ab|------------5----5--5--7-8--------------------------------------|
Eb|----------------------------------------------------------------|

Gb|----------------------------------------------------------------|
Db|-9----9--9---8-7---------------7---7--7---7---7---7---7---7---7-|
Ab|------------------5----7-8--------------------------------------|
Eb|----------------------------------------------------------------|

Pre Solo
Gb|----------------------------------------------------------------|
Db|----------------------------------------------------------------|
Ab|--------------7-7-7---7-7-7--7-7-7--7-7-7--7-7-7--7-7-7--7-7-7--|
Eb|-8-----10-------------------------------------------------------|

Bridge B
Gb|-----9--9-9--------------------------7-----7--------------------|
Db|-7-----------------------------7--------7-----7---5--5-5---7-8--|
Ab|------------5----5--5--7-8-------------------------------------7|
Eb|----------------------------------------------------------------|

Interlude (it gets faster here)
Gb|----------------------------------------------------------------|
Db|----------------------------------------------------------------|
Ab|-5h7-5h7-5h7-5h7-5h7-5h7-5h7-5h7-5h7-5h7-5h7-5h7-5h7-5h7-5h7-5h7|
Eb|----------------------------------------------------------------|

Final Verse A
Gb|----------------------------------------------------------------|
Db|----------------------------------------------------------------|
Ab|-7-7-7-7-7-7-7-7-7-7-7-7-7-7-7-7-9-9-9-9-9-9-9-9-9-9-9-9-9-9-9-9|
Eb|----------------------------------------------------------------|

Final Verse B
Gb|------------------------------------------------1412----12------|
Db|----------------------------------------------------1412--1412--|
Ab|101010101010101010101010101010101212121212121212--------------15|
Eb|----------------------------------------------------------------|

Final Verse C
Gb|---------------------------------------------------------9-7---7|
Db|-------------------------------------------------------------9--|
Ab|-7-7-7-7-7-7-7-7-7-7-7-7-7-7-7-7-9-9-9-9-9-9-9-9-9-9-9-9--------|
Eb|----------------------------------------------------------------|

Final Verse D
Gb|----------------------------------------------------------------|
Db|---------------------------------7-7-7-7-7-7-7-7-7-7-7-7-7-7-7-7|
Ab|10101010101010101010101010101010--------------------------------|
Eb|----------------------------------------------------------------|

Finish on Ab|--7---|

Song Structure:
Chorus A x1
Verse A x3
Verse B x1
Verse B x1
Verse A x1
Verse C x1
Pre Chorus A x1
Verse A x4
Verse B x1
Verse A x1
Verse C x1
Pre Chorus B x2
Pre Chorus A x1
Chorus B x1
Bridge A x1
Verae A x6
Pre Solo x1
Verse B x1
Verse A x1
Verse C x1
Verse A x1
Verse B x1
Verse A x3
Bridhe B x1
Interlude x5
Final Verse A x1
Final Verse B x1
Final Verse A x1
Final Verse C x1
Final verse B x1
Final Verse A x1
Final Verse C x1
Final verse B x1
Final Verse A x1
Final Verse B x1
Final Verse A x1
Final Verse D x1
Final Verse A x1
Final Verse D x1

Please Rate.

Enjoy!!!



************************************

| h  Hammer-on
| b  Bend

************************************
Suggest correction
comments
print report bad tab
5 comments total. Showing first comments.
+1 reply
LYNDSEYH 10 Jun 30, 2008 07:59 AM

great tab but would be easier for us mere novices if you put some timings in there as it is hard to keep referring to the structure whilst playing!!! slate me if you like the rst of you but we've all been there...

+6 reply
cianormo 394 Jun 30, 2008 10:30 AM

Too true man, but I find tabbing the rhythm is too hard sometimes, so I tend to put down the important part (i.e. the tab) and let the reader figure out the timing. Besides, anyone who wants the tab must know how the song goes already.

Thanks for the suggestion all the same.

+1 reply
phantom_bassist 10 Nov 19, 2008 08:04 PM

Nice tab thanks for putting it up :P

guest
You may want to rate the tab now too:
select rating
Wanna post a correction for this tab? Suggest correction