Oops, an error
Loading. Please wait.

Heaven And Hell Bass Tab

version 4
version 4
2,714 views 3 this week
no commentswrite comment
1 2 3 4 5
please rate
add to favorites
launch autoscroll
font size
0
reset
guitar tuner
Tab Pro tools
  • play this tab
  • loop segment
  • change instrument
  • show fretboard
  • metronome
×
Best way to learn
"Heaven And Hell"
Autoscroll
slow
fast
+/-
esc
set tempo
stop
Contributor
G-----------------------------------8p6--------------------------------------|
D--------------------------------------8p6-----------------------------------|
A---6--8-9/2--44-446--8-9-11-9p8p6--------9p8p6--8-9/2--44-446--8-9-11-9p8p6-|
E----------------------------------------------------------------------------|

G---------6h8---------------------------------------------------6h8----------|
D--4h6-6h8---------------------------------------------------6h8-------------|
A------------6-666-666-666-666-666-666-666-666-666-666-666-66------6-666-666-|
E----------------------------------------------------------------------------|

G---------------------------------------------------------------------------|
D---------------------------------------------------------------------------|
A-666-666-666-666-666-666-66-9p8p6--------6-666-666-666-666-666-666-666-666-|
E---------------------------------9p7--9------------------------------------|

G---------------------6h8---------------------------------------------------|
D------------------6h8------------------------------------------------------|
A666-666-666-666-66------6-666-666-666-666-66-9p8p6------9p77h9----11p99h11-|
E--------------------------------------------------9p7-7--------9-9---------|

G------------------------------------------------------------------------8p6-|
D----------------------------------------------------------------------------|
A-----9p77h9----11p99h11----9p77h9-------6--8-9/2--44-446--8-9-11-9p8p6------|
E-7-7-------9-9---------7-7-------9-9----------------------------------------|

G----------------------------------------------6h8-6h8/----------6--6-------|
D-8p6-------------------------------------4-6--------------4h5h6---6-6-4-4--|
A----9p8p6--8-9/2--44-446--8-9-11-9p8p6-6--------------4-4------------------|
E---------------------------------------------------------------------------|

G----3-3--4p3----------------------------------------6h8---------------------|
D-4h6-------------4h5h6---------------------------6h8------------------------|
A------------4-4----------6-666-666-666-666-666-66------6-666-666-666-666-66-|
E----------------------------------------------------------------------------|

G----------------------------------------------6h8----------------------6h8-|
D-------------------------------------------6h8---------------------4-6-----|
A-6-666-666-666-666-669p8p6-6-666-666-666-66------6-666-666-666-666---------|
E--------------------------9------------------------------------------------|

G-6h86h8/------------6--6----------------------------------------------------|
D-------------4h5h6----6-6-4-4-44--------------------------------------------|
A--------4-4---------------------6------4h64h64h64h64h64h64h64h64h64h64h64h6-|
E----------------------------------------------------------------------------|

G------------------------------------------------------------------13p11p10h-|
D----------------------------------------------------------------------------|
A-6666666666666666688888888888888899999999999999911-11-11-11-11-11-----------|
E----------------------------------------------------------------------------|

G11p10h11p10h11--------------------------------------------------------------|
D--------------11------------------------------------------------------------|
A----------------66666666666666688888888888888866666666666666668888888888888-|
E----------------------------------------------------------------------------|

G-13p11p10h11-----------------------------13p11p10h11p10h11p10h11------------|
D----------------------------------------------------------------11----------|
A------------99999999999999911-11-11-11-11-------------------------666666666-|
E----------------------------------------------------------------------------|

G--------------------------------------------------13p11p10h11---------------|
D----------------------------------------------------------------------------|
A66666688888888888888866666666666666688888888888888-----------99999999999999-|
E----------------------------------------------------------------------------|

G---------------13p11p10h11p10h11p10h11--------------------------------------|
D--------------------------------------11------------------------------------|
A911-11-11-11-11-------------------------66666666666666688888888888888899999-|
E----------------------------------------------------------------------------|

G------------------------13p11p10h11p10h11p10h11-----------------------------|
D-----------------------------------------------11---------------------------|
A999999999911-11-11-11-11-------------------------66666666666668888888888888-|
E----------------------------------------------------------------------------|

G--------------------------------|  Tab by: dylnrockin (Dylan Loccarini)
D--------------------------------|  Artist: Black Sabbath
A8811-11-11-11-11-11-11-11-6-----|    Song: Heaven & Hell
E--------------------------------|   Album: Heaven & Hell
comments
We did not receive enough feedback on this tab! Please rate:
print report bad tab
1 2 3 4 5
I want to post or [tab]
guest
You may want to rate the tab now too:
select rating
Please do not post tabs as comments. Select "correction" instead!