Oops, an error
Loading. Please wait.

Hole In The Sky Tab

version 3
version 3

Whole song

Interactive

6,698 views 9 this week
2 commentsread comments
1 2 3 4 5
accurate
x 4
add to favorites
launch autoscroll
font size
0
reset
how to read this tab
guitar tuner
Autoscroll
slow
fast
+/-
esc
set tempo
stop
Help us to improve Ultimate-Guitar.com Take our survey!
×
Main Riff
e----------------------------------------|
B----------------------------------------|
G----------------------------------------|
D------5-7-5-----5-7-5------5-7-5--5-7---|
A--0-0-------0-0--------0-0--------3-5---|
E----------------------------------------|
use alternate picking for 575

e----------------------------------------|
B----------------------------------------|
G----------------------------------------|
D------5-7-5-----5-7-5------5-7-5--7-5---|
A--0-0-------0-0--------0-0--------5-3---|
E----------------------------------------|

Riff B
e----------------------------------------------------------|
B----------------------------------------------------------|
G------5~-5~----------------------5~-5~--------------------|
D-------------5~-5~----------------------5~-5~-------------|
A--0-0---------------5~-5~/12\5----------------5~-5~/12\5--|
E----------------------------------------------------------|

e-------------------------------------------------|
B-------------------------------------------------|
G-5~-5~-------------------5~-5~-------------------|
D-------5~-5~-------------------5~-5~-------------|
A-------------5~-5~/12\5--------------5~-5~/12\5--|
E-------------------------------------------------|
it sounds really nice if you add a pinch harmonic to the last note on each string.. example
e---------------------------------------------------------------|
B---------------------------------------------------------------|
G------5~-(5)~----------------------5~-(5)~---------------------|
D-------------5~-(5)~----------------------5~-(5)~--------------|
A--0-0---------------5~-(5)~/12\5----------------5~-(5)~/12\5---|
E---------------------------------------------------------------|

Main Riff
e----------------------------------------|
B----------------------------------------|
G----------------------------------------|
D------5-7-5-----5-7-5------5-7-5--5-7---|
A--0-0-------0-0--------0-0--------3-5---|
E----------------------------------------|

e----------------------------------------|
B----------------------------------------|
G----------------------------------------|
D------5-7-5-----5-7-5------5-7-5--7-5---|
A--0-0-------0-0--------0-0--------5-3---|
E----------------------------------------|

Riff B
e----------------------------------------------------------|
B----------------------------------------------------------|
G------5~-5~----------------------5~-5~--------------------|
D-------------5~-5~----------------------5~-5~-------------|
A--0-0---------------5~-5~/12\5----------------5~-5~/12\5--|
E----------------------------------------------------------|

e-------------------------------------------------|
B-------------------------------------------------|
G-5~-5~-------------------5~-5~-------------------|
D-------5~-5~-------------------5~-5~-------------|
A-------------5~-5~/12\5--------------5~-5~/12\5--|
E-------------------------------------------------|

Chorus Riff
e------------------------------------------------------------------------|
B-10-10\(7)--------10-10\(7)--x-x--10-10\(7)-------10-10\(7)--x-x--------|
G-10-10\(7)--------10-10\(7)--x-x--10-10\(7)-------10-10\(7)--x-x--------|
D-10-10\(7)--------10-10\(7)--x-x--10-10\(7)-------10-10\(7)--x-x--------|
A------------8h10-------------------------------8h10---------------------|
E------------------------------------------------------------------------|

e------------------------------------------------------------------------|
B-10-10\(7)--------10-10\(7)--x-x--10-10\(7)-------10-10\(7)--x-x--------|
G-10-10\(7)--------10-10\(7)--x-x--10-10\(7)-------10-10\(7)--x-x--------|
D-10-10\(7)--------10-10\(7)--x-x--10-10\(7)-------10-10\(7)--x-x--------|
A------------8h10-------------------------------8h10---------------------|
E------------------------------------------------------------------------|

e------------------------------------------------------------------------|
B-10-10\(7)--------10-10\(7)--x-x--10-10\(7)-------10-10\(7)--x-x--------|
G-10-10\(7)--------10-10\(7)--x-x--10-10\(7)-------10-10\(7)--x-x--------|
D-10-10\(7)--------10-10\(7)--x-x--10-10\(7)-------10-10\(7)--x-x--------|
A------------8h10-------------------------------8h10---------------------|
E------------------------------------------------------------------------|

e---------------------------------|
B---------------------------------|
G---------------------------------|
D---------------------------------|
A--10-----10-----10----9----------|
E---8------8------8----7/12\7-----|

I never got around to learning the solo.. if I ever do I'll be sure to post it up.

-Alex
Suggest correction
What's this?
You can suggest a correction to this tab. Community and Mods will review your correction and vote to approve or reject it.
comments
print report bad tab
2 comments total.
0 reply
simmons100 218 wrote on June 22 2007, 05:02 pm

good

0 reply
Dr. Love777 67 wrote on September 28 2008, 06:39 pm

looks good to me 5 stars. would this work for the pantera version?

guest
You may want to rate the tab now too:
select rating
Please do not post tabs as comments. Select "correction" instead!