Oops, an error
Loading. Please wait.

I Bass Tab

version 1
version 1

Whole song

Interactive

2,124 views 3 this week
no commentswrite comment
1 2 3 4 5
please rate
add to favorites
launch autoscroll
font size
0
reset
guitar tuner
Autoscroll
slow
fast
+/-
esc
set tempo
stop
Help us to improve Ultimate-Guitar.com Take our survey!
×
Author
Artist:    Black Sabbath
Song:      I
Album:     Dehumanizer
Tabbed by: xHellbound


"Strength in numbers a lie, the power is one!"


/\ - slide
h  - hammer-on
~  - vibrato


Verse
|-----------------------------------|---------------------------------|
|-----------------------------------|---------------------------------|
|--5h7---------5h7---------5h7------|--5h8---------5h8---------8h10~--|
|------0-0-0-0-----0-0-0-0-----0-0--|------0-0-0-0-----0-0-0-0--------|


Chorus 1
|--------------|-----------------------|
|--------------|--------------5-7---4--|
|--7---5-7--3--|--3-2-0-3-2-0-----5----|
|--------------|-----------------------|

|--------------|-----|
|--------------|-----|
|--7---5-7--3--|--3--|
|--------------|-----|


Chorus 2
|--------------|-----------------------|
|--------------|--------------5-7---4--|
|--7---5-7--3--|--3-2-0-3-2-0-----5----|
|--------------|-----------------------|

|--------------|------------------|
|--------------|---3h5------------|
|--7---5-7--3--|---------3-2------|
|--------------|-------------3-2--|


Bridge
|-------------------------|---------------|
|-------------------------|---------------|
|------7-6-----8-7-----7--|--6-----7------|
|--0-0-----0-0-----0-0----|----7-6---6-5--|

|-------------------------|---------------|
|-------------------------|---------------|
|------7-6-----8-7-----7--|--6-----7------|
|--0-0-----0-0-----0-0----|----7-6---5~~--|


Pre-Solo
|-----|
|-----|
|-----|
|--0--|

|-----------12--------|------------------|
|--------12----14~----|------------------|
|--7/14------------7--|--7/14-12--10--7--|
|---------------------|------------------| x3

|-----------12--------|------------------|
|--------12----14~----|--------------10--|
|--7/14------------7--|--7/14-12--10-----|
|---------------------|------------------|

Solo
|-----------------------------------|---------------------------------|
|-----------------------------------|---------------------------------|
|--5h7---------5h7---------5h7------|--5h8---------5h8---------8h10~--|
|------0-0-0-0-----0-0-0-0-----0-0--|------0-0-0-0-----0-0-0-0--------| x4

|--------------|-----------------------|
|--------------|--------------5-7---4--|
|--7---5-7--3--|--3-2-0-3-2-0-----5----|
|--------------|-----------------------|

|--------------|-----|
|--------------|-----|
|--7---5-7--3--|--3--|
|--------------|-----|
Suggest correction
What's this?
You can suggest a correction to this tab. Community and Mods will review your correction and vote to approve or reject it.
comments
We did not receive enough feedback on this tab! Please rate:
print report bad tab
1 2 3 4 5
guest
You may want to rate the tab now too:
select rating
Please do not post tabs as comments. Select "correction" instead!