Oops, an error
Loading. Please wait.

Into The Void Tab

version 2
version 2

Whole song

Interactive

54,763 views 84 this week
no commentswrite comment
1 2 3 4 5
x 6
add to favorites
launch autoscroll
font size
0
reset
how to read this tab
guitar tuner
Autoscroll
slow
fast
+/-
esc
set tempo
stop
Help us to improve Ultimate-Guitar.com Take our survey!
×
Into The Void
Black Sabbath - Master Of Reality (1971)

Tune down 1 1/2 steps

|------------------------------------------------------------------------|
|------------------------------------------------------------------------|
|------------------------------------------------------------------------|
|---------------2-----1-----0------------------------------------2-------|
|---------0-1-2-----2-----2---1~---0h1p0---0h1p0---0h1p0---0-1-2---2p0---|
|-(7)\0-3--------------------------------3-------3-------3-------------3-|


|-------------------------------------------------------------|
|-------------------------------------------------------------|
|---9-9-9-9--7--7-7-----------9-9-9-9-7-7---------------------|
|---9-9-9-9--7--7-7-----------9-9-9-9-7-7-----------2---------|
|---7-7-7-7--5--5-5-0-7-6-5---7-7-7-7-5-5-----0-1-2-----------|
|-0-------------------------0-------------3^------------------|


|--------------------------------------------------------------|
|--------------------------------------------------------------|
|----9-9-9-9--7--7---------------------------------------------|
|----9-9-9-9--7--7---7-6-5/------------------------------------|
|----7-7-7-7--5--5-0-------10-10-10-10-10-12--9----------------|
|-0-------------------------8--8--8--8--8-10--7-----(7)\-------|
back to start on 1st time


|--------------------------------------------------------------|
|--------------------------------------------------------------|
|--------------------------------------------------------------|
|-----------------------------------------------slow-----------|
|-5h7---------5h7-----5~---5h7---------5h7-------bend----------|
|-0---0-0-0-0-0---0-0------0---0-0-0-0-0---0-0-5^-^------------|


|--------------------------------------------|
|--------------------------------------------|
|--------------------------------------------|
|--------------------------------------------|
|(5)h7-6-5-------5h7---------5h7-----5/x\----|
|----------7-6-5-0---0-0-0-0-0---0-0---------|


|------------------------------------------------|-------------|
|------------------------------------------------|-------------|
|------------------------------------------------|-------------|
|------------------------------------------------|-------------|
|------------------------------------------------|-7-6-5-------|
|-0--3-(3)p0-6---6-5--3^--0--3-(3)p0-6---6-5--3^-|-------7-6-5-|

solo 1:
|---------------------------------------------------------------------------|
|---------------------------------------------------------------------------|
|-------------------------7-9-9^------7h9-9-9----9p7---9p7------------------|
|-----5-------5---5-7-7/9----------------------------------9\7p5-7----5-----|
|-5h7---7-7-----7-------------------------------------------------------7-7-|
|---------------------------------------------------------------------------|

|---------------------------------------------------------------|
|---------------------------------------------------------------|
|------------7-9^-9^-9^^--7h9-9-9p7-----------------------------|
|-----5-7-7/9-----------------------9\7p5-7~~~---5---5-7-7^^^-5-|
|-5-7----------------------------------------------7------------|
|---------------------------------------------------------------|
|
|---------------------------------------------------------------|
|---------------------------------------------------------------|
|-------------7-9p7-9^7--9-7------------------------------------|
|-----5-7-7/9----------------9\7--5------------------5-5-7^^^-5-|
|-5h7-------------------------------7-7----------5-7------------|
|---------------------------------------------------------------|


|--------------------------------------------------------------|
|--------------------------------------------------------------|
|--------------------------------------------------------------|
|-----------------5------------------------5-------------------|
|-7-6-5-----5-6-7---7~~~--7-6-5------5-6-7---7~~~--------------|
|------7~~~---------------------7~~~---------------------------|


|----------------------------------------------------------------------|
|----------------------------------------------------------------------|
|----------------------------------------------------------------------|
|----------------------------------------------------------------------|
|-/14--14-----------------14--14-----------------14--14----------------|
|--12--12-12\2-2-2/5~~~--/12--12-12\2-2-2/8~~~--/12--12-12\3-3-3/10~~~-|

                                    1:|
|-----------------------------------------12-------------------|
|---------------------------------------12--1512---12-12-------|
|------------------------------------14^--------14-12-12\9-9/--|
|--------------------------------------------------------------|
|--14--14-14---------------14--14-14---------------------------|
|-/12--12-12\3-3-3/12~~~\8/12--12-12---------------------------|

2:|                                            3:|
|-12-15^-15-121512-------------------||-------12---------------------|
|-----------------12-15^-15-15^-15\--||----12-12-15p12---------12-12-|
|------------------------------------||---------------14-1412--12-12-|
|------------------------------------||----------------------14------|
|------------------------------------||------------------------------|
|------------------------------------||------------------------------|

4:|
|------------------------------------------------------------------|
|------------------------------------------------------------------|
|-9^^^^---7h9-9-9-9-p-7--------------------------------------------|
|----------------------9\7p5-7--------5----------------5-----5-7/9-|
|---------------------------------------7-7--------5h7---5h7-------|
|------------------------------------------------------------------|
|
|------------------------------------------------------------------|
|------------------------------------------------------------------|
|---------7h9-9-9-9-p-7---------------------------------------7-9--|
|----------------------9\7p5-7--------5---------------5-7-7/9------|
|---------------------------------------7-7---7-7-5h7--------------|
|------------------------------------------------------------------|


|------------------------12-------------12-----15^^^----15-12--------12-------|
|---------------------12---15-15^^^^------1512----------15-12-15^^^----15-15^-|
|-7-9-9^p7-9////14-14^--------------------------------------------------------|
|-----------------------------------------------------------------------------|
|-----------------------------------------------------------------------------|
|-----------------------------------------------------------------------------|
|
|--------------------------------------------------------------------------|
|--------------------------------------------------------------------------|
|-^9p7-9-9-9-------9-7-------------------------------------7-------7/9^-9^-|
|---------------------9\7-5-7-----------5-----------5h7-9----9\7p5---------|
|-----------------------------------------7---7~~--------------------------|
|--------------------------------------------------------------------------|


|-12----------------12-------12--------------------------------12------|
|---15-12---------12--15-15^---15-12-----------------12-15---12--15^-\-|
|--------14^12-14^------------------^14p12-14--12h14^-----14^----------|
|--------------------------------------------14------------------------|
|----------------------------------------------------------------------|
|----------------------------------------------------------------------|
|
|------------------------------------------------------------------|
|------------------------------------------------------------------|
|-7h9-9----------------------------------7-9-9^^^9^^^9^^^p7--------|
|-------9\7p5--7-----------5----7----7/9--------------------9-7--5-|
|------------------------------------------------------------------|
|------------------------------------------------------------------|


|--------------------------------------------------------------|
|--------------------------------------------------------------|
|--------------------------------------------------------------|
|-----------------5--------------------------5-----------------|
|-7-6-5-----5-6-7---7-7~~---7-6-5------5-6-7---7~~~------------|
|-------7~~-----------------------7~~~-------------------------|



************************************

| h  Hammer-on
| p  Pull-off
| /  Slide up
| \  Slide down
| ~  Vibrato

************************************
Suggest correction
comments
print report bad tab
guest
You may want to rate the tab now too:
select rating
Wanna post a correction for this tab? Suggest correction