Oops, an error
Loading. Please wait.

Iron Man Bass Tab

version 1
146,125 views 90 this week
11 commentsread comments
1 2 3 4 5
accurate
x 19
add to favorites
launch autoscroll
font size
0
reset
guitar tuner
Autoscroll
slow
fast
+/-
esc
set tempo
stop
Help us to improve Ultimate-Guitar.com Take our survey!
×
Iron Man - Bass
Black Sabbath - Paranoid


     ||-----------------------------------------------------------------||
     ||-----------------------------------------------------------------||
     ||----7b(10)-----7b(10)-----7b(10)----7b(10)-----------------------||
     ||-----------------------------------------------------------------||

                                                   This lick goes right w/
     ||-------------------------------------------||----------------------|
     ||-------------------------------------------||----------------------|
     ||--2---5--5/7-7---10-9-10-9-10---5-5/7-7/\--||--------5b(6)---------|
     ||-------------------------------------------||--7--7--------7-6-5-5-|
     the drum roll       No body helps him    Now he has his...
     ------------------||-------9---7--------------------------||---------|
     ------7-6-7-6-7---||-----9--------9-7-5----------4--5-4---||---------|
     ---7------------7-||-7------------------5------5--------5-||---------|
     -5----------------||-------------------------7------------||--7-7--7-|

                         [Pre solo]                       [solo]
     ------------------||------------------------------||------------------|
     ------------7-8-9-||--11-9------------------------||------------------|
     -5-7--7-8-9-------||--------11-10-9-7-------------||------------------|
     ------------------||------------------7-7-7-9-9-9-||--9-9-9-9-9-7h9-9-|

     ----------------------------------------------------------------------|
     ---------------------------------9-11-11-11-11-11-9h11-11-11-11-11-9h-|
     ----------------------7---7-9-11--------------------------------------|
     -9-9-9-7h9-9-9-9-97h9---9---------------------------------------------|

     ----12-11-9--------------------------------------------9-------------|
     -11---------12-11-9-11-11-11-11-119h11-11-11-11-119h11---11-9-7------|
     ----------------------------------------------------------------11-9-|
     ---------------------------------------------------------------------|

     --------------------------------------------------------------||------|
     ------------------------------9h11--9h11--9h11---9h11-9h11-11-||-11-9-|
     -7------------------------------------------------------------||------|
     ---7h9--7h9--7h9---7h9-7h9-9----------------------------------||------|

                            [outro] (time to use the steve harris hand)
     -----------------------||---------------------------------------------|
     -----------------------||---------------------------------------------|
     -11-10-9-7-------------||-7-7-7-7-7-7-7-7-7-7-7-7-7-7-7-7-7-7-7-7-7-7-|
     -----------7-7-7-9-9-9-||---------------------------------------------|
     Do this while guitar does E bend.  When guitar does riff do this
     ---------------------------------|------------------------------------|
     ---------------------------------|------------------------------------|
     -7-7-7-7-7-7-7-7-7-7-7-7-7-7-7-7-|7-5-7-7-7-7-7-7-7-5-3-5-5-5-5-5-5-5-|
     ---------------------------------|------------------------------------|

                       Geezer does different endings for this riff
     ------------------|---------------------|
     ------------------|---------------------|
     -3-2-3-3-3-3-3-3-3|-2-2-2-2-2-2-2-2-2-2-|
     ------------------|---------------------|
                       here are some of the licks Geezer does
     |-----------------|---------------------|-------------------||
     |-----------------|---------------------|-------------------||
     |-2-3-2---2-3-5---|-2-3-2-------3-5-----|-2-3-2-3-2-3-5-----||
     |-------3---------|--------3-5----------|-------------------||

************************************

| h  Hammer-on
| /  Slide up
| \ slide down
| b =bend
|( )=note bend to

************************************
Suggest correction
comments
print report bad tab
11 comments total. Showing first comments. show 1 bad comment
0 reply
PUNK_KID_3 0 wrote on March 17 2002, 12:00 am

YOU ARE CLOSE BUT I PLAY IT DIFFERENT AND IT SOUNDS BETTER MINE IS
PLAYED ON E AND ITS
1-4-4-6-6-989898-4-4-6

0 reply
russmister666 10 wrote on May 6 2002, 12:00 am

pretty good it is ok work on it

guest
You may want to rate the tab now too:
select rating
Wanna post a correction for this tab? Suggest correction