Oops, an error
Loading. Please wait.
4,179,279 views 5,511 this week
465 commentsread comments
1 2 3 4 5
excellent!
x 1,388
add to favorites
launch autoscroll
font size
0
reset
how to read this tab
guitar tuner
Autoscroll
slow
fast
+/-
esc
set tempo
stop
Help us to improve Ultimate-Guitar.com Take our survey!
×
Author
[Intro riff]

e|------------------------------------------|------------------------------------------|  
B|------------------------------------------|------------------------------------------|   
G|------------------------------------------|------------------------------------------|  
D|----7--7/9-9--12\11-12\11-12\11--7-7/9-9--|----7--7/9-9--12\11-12\11-12\11--7-7/9-9--|               
A|-9--5--5/7-7--10\9--10\9--10\9---5-5/7-7--|-9--5--5/7-7--10\9--10\9--10\9---5-5/7-7--|
E|-7----------------------------------------|-7----------------------------------------|


[Verse]
(repeat throughout the verse)
e|------------------------------------------|------------------------------------------|
B|------------------------------------------|------------------------------------------|
G|------------------------------------------|------------------------------------------|
D|------------------------------------------|------------------------------------------|
A|----5--5h7--7--10\9-10\9-10\9--5--5h7--7--|----5--5h7--7--10\9-10\9-10\9--5--5h7--7--|
E|-7----------------------------------------|-7----------------------------------------|
 has    he    lost     his        mind            can  he  see   or is   he   blind
                          
          
[Rhytm]
(repeat throughout the verse)
e|------------------------------------------|
B|------------------------------------------|
G|------------------------------------------|
D|------------------------------------------|
A|----5--5h7--7--10\9-10\9-10\9--5--5h7--7--|
E|-7----------------------------------------|
  Is he live or dead? Has he thoughts within his head, ect.


[1st riff]

e|------------------------------------------------------|
B|------------------------------------------------------|
G|------------------------------------------------------|
D|------------------------------------------------------|
A|-----5-------------------------5----------------------|
E|-7-7---7-6-5-5-5-0h4-5-5-6-7-7---7-6-5-5-5-0h4-5-5-6--|


[End of 1st riff]

e|-----------------|
B|-----------------|
G|-----------------|
D|-----------------|
A|-----5-----------|
E|-7-7---7-6-5-5-5-|


[Rhythm]

e|------------------------------------------|
B|------------------------------------------|
G|------------------------------------------|x2
D|------------------------------------------|
A|----5--5h7--7--10\9-10\9-10\9--5--5h7--7--|
E|-7----------------------------------------|
   He was turned to steel in the great magnetic field, ect.


[Bridge]

e|------------------------------------------|------------------------------------------------------|
B|------------------------------------------|------------------------------------------------------|
G|------------------------------------------|------------------------------------------------------|
D|-9------------------7---------------------|---------------------7-8-9----------------------7-8-9-|
A|-7------------------5---------------------|-9--9-------7--7-8-9--------9--9-------7--7-8-9-------|
E|------------------------------------------|-7--7--7-10-----------------7--7--7-10----------------|
   Nobody wants him    he just stares at the  world

e|------------------------------------------|------------------------------------------------------|
B|------------------------------------------|------------------------------------------------------|
G|------------------------------------------|------------------------------------------------------|
D|-9------------------7---------------------|---------------------7-8-9----------------------7-8-9-|
A|-7------------------5---------------------|-9--9-------7--7-8-9--------9--9-------7--7-8-9-------|
E|------------------------------------------|-7--7--7-10-----------------7--7--7-10----------------|
   Planning his vengance that he will soon unfurl


[Rhythm]

e|------------------------------------------|
B|------------------------------------------|
G|------------------------------------------|x2
D|------------------------------------------|
A|----5--5h7--7--10\9-10\9-10\9--5--5h7--7--|
E|-7----------------------------------------|
   Now the time is here for Iron Man to spread fear, ect.


[Bridge]

e|------------------------------------------|------------------------------------------------------|
B|------------------------------------------|------------------------------------------------------|
G|------------------------------------------|------------------------------------------------------|
D|-9------------------7---------------------|---------------------7-8-9----------------------7-8-9-|
A|-7------------------5---------------------|-9--9-------7--7-8-9--------9--9-------7--7-8-9-------|
E|------------------------------------------|-7--7--7-10-----------------7--7--7-10----------------|
   Nobody wants him, they just turn their heads, ect.


[Solo}

e|---------------------------------------------|
B|---------------------------------------------|
G|---------------------------------------------|
D|-11-9-------------------11-9-----------------|
A|------11-10-9-7--------------11-10-9-7-------|
E|----------------7-7/9-9----------------7-7h9-|

e|----------------------------------------------------------|
B|----------------------------------------------------------|
G|----------------------------------9-9---------9-9---------|
D|-------------------------9-9-9h11-----11p9--------11p9----|
A|-----7h9-9p7----7h9-9/11-------------------11----------11-|
E|-7h9---------9h-------------------------------------------|

e|--------------9-------------------------------------------|
B|-----------/9---12-9-----------------------9-12p9----9----|
G|---------------------11-9-9-----------9h11--------11------|
D|-9h11-11--------------------11-9-9h11---------------------|
A|----------------------------------------------------------|
E|----------------------------------------------------------|

e|------------------------9--------/14-14-14-14p12----------|
B|-12p9----9-12p9----9-12---12-9-9-----------------14h-14---|
G|------11--------11----------------------------------------|
D|----------------------------------------------------------|
A|----------------------------------------------------------|
E|----------------------------------------------------------|

e|--------9-9-----------------------------------------------|
B|-12-14------12p9-----9-12-12p9----------------------------|
G|-----------------11h-----------11h-11p9-----9-9-----------|
D|----------------------------------------11h-----11p9------|
A|-----------------------------------------------------11---|
E|----------------------------------------------------------|

e|----------------------------------------------------------|
B|----------------------------------------------------------|
G|------9-9---------------9---------------------------------|
D|-9h11-----11p9-----9h11---9-9h11-9h11-9h11-9h11-9h11-11---|
A|---------------11h----------------------------------------|
E|----------------------------------------------------------|

e|----------------------------------------------------------|
B|----------------------------------------------------------|
G|----------------------------------------------------------|
D|-9h11-9h11-9h11-9h11-9h11-11-11-9-----------------11-9----|
A|----------------------------------11-10-9-7------------11-|
E|--------------------------------------------7-7/9---------|

e|--------------|
B|--------------|
G|--------------|
D|--------------|
A|-10-9-7-------|
E|--------7-7/9-|


[Bridge]

e|------------------------------------------------------|
B|------------------------------------------------------|
G|------------------------------------------------------|x2
D|---------------------7-8-9----------------------7-8-9-|
A|-9--9-------7--7-8-9--------9--9-------7--7-8-9-------|
E|-7--7--7-10-----------------7--7--7-10----------------|


[Rhytm]

e|------------------------------------------|
B|------------------------------------------|
G|------------------------------------------|x2
D|------------------------------------------|
A|----5--5h7--7--10\9-10\9-10\9--5--5h7--7--|
E|-7----------------------------------------|
Heavy boots of lead, fills his victims full of dread, ect.


[1st riff] 

e|------------------------------------------------------|
B|------------------------------------------------------|
G|------------------------------------------------------|
D|------------------------------------------------------|
A|-----5-------------------------5----------------------|
E|-7-7---7-6-5-5-5-0h4-5-5-6-7-7---7-6-5-5-5-0h4-5-5-6--|



***********************************
| /   Slide up
| \   Slide down
| h   Hummer-on
| p   Pull-off
***********************************
Suggest correction
comments
print report bad tab
465 comments total. Showing first comments.
+34 reply
death666 10 wrote on February 22 2002, 12:00 am

hey this tab rules i got it 4 da solo and it works well, well done and keep up the good work!

+29 reply
hardrocker 10 wrote on March 8 2002, 12:00 am

kick ass tab

+27 reply
Josh30 0 wrote on March 14 2002, 12:00 am

This tab kicks ass!

guest
You may want to rate the tab now too:
select rating
Wanna post a correction for this tab? Suggest correction