Oops, an error
Loading. Please wait.
6,817 views 6 this week
16 commentsread comments
1 2 3 4 5
x 10
add to favorites
×
Save as Personal and add changes to this tab that will be seen only by you. Learn more ›
×
You can save this tab as Personal to edit and correct it or add notes. All changes will be seen only by you. Learn more »
launch autoscroll
font size
0
reset
how to read this tab
guitar tuner
backing track
0:00
0:00
edit
Autoscroll
slow
fast
+/-
esc
set tempo
stop
Author
Wassup people! This is the real deal! The entire song of iron man 9s not included) it 
like 3 months to figure this out and plus it's my first tab so don't u fucking diss me!


 Intro ( *0* means bend down behind nut (Where you tune your strings)
e--------------------------------------------------------------|
B--------------------------------------------------------------|
G--------------------------------------------------------------|
D--------------------------------------------------------------|
A--------------------------------------------------------------|
E---*0*-----------------*0*--------------------------*0*-------|


Main Rift

e--------------------------------------------------------------|
B--------------------------------------------------------------|
G--------------------------------------------------------------|
D--4---7--7--9--9---12/10/12/10/12/10----7-7-9-9---------------| X 2
A--2---5--5--7--7---10/9/10/ 9/ 10/9-----5-5-7-7---------------|
E--------------------------------------------------------------|

Rift 1
e--------------------------------------------------------------|
B--------------------------------------------------------------|
G--------------------------------------------------------------|
D--------------------------------------------------------------| X 2
A-----5--5---7-7----10-9-10-9-10-9--5--5---7--7----------------|
E--7-----------------------------------------------------------|


e--------------------------------------------------------------|
B--------------------------------------------------------------|
G--------------------------------------------------------------|
D--4---7--7--9--9---12/10/12/10/12/10----7-7-9-9---------------|
A--2---5--5--7--7---10/9/10/ 9/ 10/9-----5-5-7-7---------------|
E--------------------------------------------------------------|


e--------------------------------------------------------------|
B--------------------------------------------------------------|
G--------------------------------------------------------------|
D--------------------------------------------------------------| X 2
A-----5--5---7-7----10-9-10-9-10-9--5--5---7--7----------------|
E--7-----------------------------------------------------------|

Rift 2
e--------------------------------------------------------------|
B--------------------------------------------------------------|
G--------------------------------------------------------------|
D--------------------------------------------------------------|
A-----------5--------------------------------5-----------------|
E--7-7-7-7----7-6-5-5-5-0h4-5-5-5-6-7-7-7-7----7-6-5-5-5-0h4---|

e--------------------------------------------------------------|
B--------------------------------------------------------------|
G--------------------------------------------------------------|
D--------------------------------------------------------------|
A------------------5-------------------------------------------|
E-5-5-5-6-7-7-7-7----7-6-5-5-5-0h4-5-5-5-6-7-7-7---------------|

e--------------------------------------------------------------|
B--------------------------------------------------------------|
G--------------------------------------------------------------|
D--4---7--7--9--9---12/10/12/10/12/10----7-7-9-9---------------| X 2
A--2---5--5--7--7---10/9/10/ 9/ 10/9-----5-5-7-7---------------|
E--------------------------------------------------------------|

e--------------------------------------------------------------|
B--------------------------------------------------------------|
G--------------------------------------------------------------|
D--------------------------------------------------------------| X 2
A-----5--5---7-7----10-9-10-9-10-9--5--5---7--7----------------|
E--7-----------------------------------------------------------|


Rift 3
e--------------------------------------------------------------|
B--------------------------------------------------------------|
G--------------------------------------------------------------|
D--9---7----------------------7-8-9----------------------7-8-9-| X 2
A--7---5--9--9-------7--7-8-9--------9--9-------7--7-8-9-------|
E---------7--7--7-10-----------------7--7--7-10----------------|


e--------------------------------------------------------------|
B--------------------------------------------------------------|
G--------------------------------------------------------------|
D--4---7--7--9--9---12/10/12/10/12/10----7-7-9-9---------------| X 2
A--2---5--5--7--7---10/9/10/ 9/ 10/9-----5-5-7-7---------------|
E--------------------------------------------------------------|


e--------------------------------------------------------------|
B--------------------------------------------------------------|
G--------------------------------------------------------------|
D--------------------------------------------------------------| X 2
A-----5--5---7-7----10-9-10-9-10-9--5--5---7--7----------------|
E--7-----------------------------------------------------------|

e--------------------------------------------------------------|
B--------------------------------------------------------------|
G--------------------------------------------------------------|
D--9---7----------------------7-8-9----------------------7-8-9-| X 2
A--7---5--9--9-------7--7-8-9--------9--9-------7--7-8-9-------|
E---------7--7--7-10-----------------7--7--7-10----------------|


Pre Solo
e--------------------------------------------------------------|
B--------------------------------------------------------------|
G--------------------------------------------------------------|
D-11-9-------------------11-9----------------------------------|
A------11-10-9-7--------------11-10-9-7------------------------|
E----------------7-7/9-9----------------7-7h9------------------|


Solo
e-----------------------------------------------------------|
b-----------------------------------------------------------|
g---------------------------------------------9--(9)--------|
d----------------------------------9--9--9h11-----11--11p9--|
a-------7--7h9--9p7-----7--9--9/11--------------------------|
e--7-h9--------------9--------------------------------------|

e----------------------------------------9---------------------|
b-----------------------------------9------12p9----9-----------|
g-----9--9-------------------x--11--11b---------11-9-9--9b(10)-|
d----------11p9----9h11--11------------------------------------|
a-11------------11---------------------------------------------|
e--------------------------------------------------------------|

e-------------------------9--------------------------------------|
b----------------------9----12p9-------9-12p9------9--12-12b(14)-|
g--------------9--11b--9---------11p9---------11p9-------12b(13)-|
d-11--9--9h11----------------------------------------------------|
a----------------------------------------------------------------|
e----------------------------------------------------------------|

e-9-----------12b(13)-12b14r12-12b13r12-9h12p9----9---------|
b---12--9--9-----------------------------------12---12-12b--|
g-----------------------------------------------------------|
d-----------------------------------------------------------|
a-----------------------------------------------------------|
e-----------------------------------------------------------|

e-----9---------------------------------------------------|
b-12b---12p9------9--12p9---------------------------------|
g------------11b--9--------11--11p9-----9--9--------------|
d------------------------------------11------11p9----9h11-|
a-------------------------------------------------11------|
e---------------------------------------------------------|

e------------------------------------------------------------|
b----------------------0-------------------------------------|
g-9--9--------------9----------------------------------------|
d------11p9----9h11-------9h11--9h11--9h11--9h11--9h11--9h11-|
a-----------11-----------------------------------------------|
e------------------------------------------------------------|

e--------------------------------------------------------------------|
b--------------------------------------------------------------------|
g--------------------------------------------------------------------|
d-9h11--9h11--9h11--9h11--9h11--9h11---11--9-------------------------|
a---------------------------------------------11-10--9--7------------|
e----------------------------------------------------------7--7h9--9-|

e-------------------------------------------------------|
B-------------------------------------------------------|
G-------------------------------------------------------|
D----------------------7-8-9----------------------7-8-9-|
A--9--9-------7--7-8-9--------9--9-------7--7-8-9-------|
E--7--7--7-10-----------------7--7--7-10----------------|

e-------------------------------------------------------|
B-------------------------------------------------------|
G-------------------------------------------------------|
D----------------------7-8-9----------------------7-8-9-|
A--9--9-------7--7-8-9--------9--9-------7--7-8-9-------|
E--7--7--7-10-----------------7--7--7-10----------------|

e--------------------------------------------------------------|
B--------------------------------------------------------------|
G--------------------------------------------------------------|
D--4---7--7--9--9---12/10/12/10/12/10----7-7-9-9---------------| X 4
A--2---5--5--7--7---10/9/10/ 9/ 10/9-----5-5-7-7---------------|
E--------------------------------------------------------------|

e--------------------------------------------------------------|
B--------------------------------------------------------------|
G--------------------------------------------------------------|
D--------------------------------------------------------------|
A-----------5--------------------------------5-----------------|
E--7-7-7-7----7-6-5-5-5-0h4-5-5-5-6-7-7-7-7----7-6-5-5-5-0h4---|

e--------------------------------------------------------------|
B--------------------------------------------------------------|
G--------------------------------------------------------------|
D--------------------------------------------------------------|
A------------------5-------------------------------------------|
E-5-5-5-6-7-7-7-7----7-6-5-5-5-0h4-5-5-5-6-7-7-7---------------|


Outro (Once again *0* means bend down behind nut [Where you tune your strings])
e--------------------------------------------|
B--------------------------------------------|
G--------------------------------------------|
D--------------------------------------------|
A--------------------------------------------|
E---*0*-----------------*0*------------------|

e------------------------------------------------------------------------|
b------------------------------------------------------------------------|
go-----------------------------------------------------------------------|o
do------------------------------------------------4--5--4---5--4h5p4-----|o
a--------------------------------------------------------------------5---|
e------------------------------------------------------------------------|

e-------------------------------------------------------------|
b-------------------------------------------------------------|
g---------------------7-----7--9--9b(12)---9b(12)---9b(12)r9--|
d--------5------7//9-----9------------------------------------|
a--5/7-------7------------------------------------------------|
e-------------------------------------------------------------|

e--------------------------------10--10h12--12b--12b--12br12p10-12p10-|
b--------------------8----10//12--------------------------------------|
g--7-----7--h9vvvvv-----9---------------------------------------------|
d-----9---------------------------------------------------------------|
a---------------------------------------------------------------------|
e---------------------------------------------------------------------|

e-10-------------------------------------------------------|
b----12--12\\10--8//10--8----------------------------------|
g--------------------------9--7----------------------------|
d---------------------------------9\7--5--7p5----5h7-------|
a---------------------------------------------7------5h7---|
e----------------------------------------------------------|

e------------------------------------------------------------|
b------------------------------------------------------------|
g--------------7-----7--9--9b(12)---9b(12)---9b(12)---9b(12)-|
d--5--7--7//9-----9------------------------------------------|
a------------------------------------------------------------|
e------------------------------------------------------------|

e-----------------------------------------------------------|
b-----------------------------------------------------------|
g--7h9p7----7-----------------------------------------------|
d--------9-----9\7--5--7---5--7--7b(8)--7b(8)--7b(8)r--5----|
a---------------------------------------------------------7-|
e-----------------------------------------------------------|

e------------------------------------------------------------------------|
b------------------------------------------------------------------------|
go-----------------------------------------------------------------------|o
do------------------------------------------------4--5--4---5--4h5p4-----|o
a--7__p5--7vvvvvv---5h7p5vvvvvv---7__p5--7vvvvvv---------------------5---|
e------------------------------------------------------------------------|

e----------|
b----------|
g----------|
d----------|
a-7__p5--7-|
e----------|


There it is the whole song of iron man enjoy!

            
            
Suggest correction
Creating personal tab
Creating personal tab
You can edit any tab online and save it as your Personal.

You can edit, replace or remove any tab part or add personal notes – all changes will be seen only by you.

Personal tabs can be accessed anytime from any device, even offline.
Learn more »
comments
print report bad tab
16 comments total. Showing first comments.
0 reply
METSOAD 1,632 Nov 07, 2006 05:28 AM

this is perfect, but whyu do we need another Iron Man?

0 reply
vince1389 51 Nov 09, 2006 02:30 PM

cause i though it would be nice to have the song, solo and outro in one tab beacause if u look over the site u'll see that everything is spaced out.

0 reply
Sloopy 1,141 Nov 13, 2006 04:01 PM

stop tabbing this song seriously we get the point lol

goob job anyways.

guest
You may want to rate the tab now too:
select rating
Wanna post a correction for this tab? Suggest correction