Oops, an error
Loading. Please wait.
6,511 views 9 this week
1 commentread comment
1 2 3 4 5
accurate
x 2
add to favorites
launch autoscroll
font size
0
reset
how to read this tab
guitar tuner
Tab Pro tools
  • play this tab
  • loop segment
  • change instrument
  • show fretboard
  • metronome
×
Best way to learn
"Iron Man"
Autoscroll
slow
fast
+/-
esc
set tempo
stop
Contributor
Intro: 
e|--------------------------------------------------------------------
B|----------------14b-16b---------------------------------------------
G|--------------------------------------------------------------------
D|--------------------------------------------------------------------
A|--------------------------------------------------------------------
E|0b-------0b-----------------0b--------------------------------------

Riff 1:(Play 2x)
e|--------------------------------------------------------------------
B|--------------------------------------------------------------------
G|--------------------------------------------------------------------
D|--------------------------------------------------------------------
A|9-----12--12/14\-12----17/16\17/16\17--12--12/14\12-----------------
E|7-----10--10/12\-10----15/14\15/14\15--10--10/14\12-----------------

Riff 2:(Play 2x)
e|--------------------------------------------------------------------
B|--------------------------------------------------------------------
G|--------------------------------------------------------------------
D|---------------545454-----------------------------------------------
A|--5--5/7\5--7---------5--5/7\5--7-----------------------------------
E|7-------------------------------------------------------------------

Play Riff 1; 1x
Play Riff 2; 2x

Riff 3:(Play 3)           3rd time w/o
e|------------------------|--------|---------------------------------
B|------------------------|--------|---------------------------------
G|------------------------|--------|---------------------------------
D|-------7----------------|--------|---------------------------------
A|9-9-00-5-9--8--7-6-0000-|6-7-7-8-|---------------------------------
E|7-7-00---7--6--5-5-0000-|4-5-5-6-|---------------------------------

Play Riff 1: 2x
Play Riff 2: 2x

Riff 4:(Play 2x)
e|--------------------------------------------------------------------
B|--------------------------------------------------------------------
G|--------------------------------------------------------------------
D|---------------------------2-3-4------------------2-3-4-------------
A|14---13----4-4-----2-2-3-4--------4-4-----2-2-3-4-------------------
E|12---11----2-2-2-5----------------2-2-2-5---------------------------

Play Riff 1: 2x
Play Riff 2: 2x
Play Riff 4: 2x

Riff 5:
e|--------------------------------------------------------------------
B|--------------------------------------------------------------------
G|6-4------------------6-4--------------------------------------------
D|----6-5-4-2--------------6-5-4-2------------------------------------
A|------------2-2h4-4--------------2-2h4-4----------------------------
E|--------------------------------------------------------------------

Solo 1:(Play 9x) [haven't figured guitar 2 yet]
e|--------------------------------------------------------------------
B|---------p.m.-------------------------------------------------------
G|-----_________------------------------------------------------------
D|--------------------------------------------------------------------
A|7/9--999999999--7/9-10-9--------------------------------------------
E|5/7--777777777--5/7--8-7--------------------------------------------

Play Riff 5; 1x
Play Riff 4; 3x

then play:
e|--------------------------------------------------------------------
B|--------------------------------------------------------------------
G|--------------------------------------------------------------------
D|--------------------------------------------------------------------
A|2-4-----2-2-3-4-000-------------------------------------------------
E|2-2-2-5---------000-------------------------------------------------

Play Riff 1; 2x
Play Riff 2; 2x
Play Riff 3; 3x
Play Intro

Solo 2: Part 1 (Play 9x)
e|--------------------------------------------------------------------
B|--------------------------------------------------------------------
G|--------------------------------------------------------------------
D|--------------------------------------------------------------------
A|9---7---6---5-------------------------------------------------------
E|7---5---4---3-------------------------------------------------------

Solo 2: Part 2
e|--------------------------------------------------------------------
B|--------------------------------------------------------------------
G|--------------------------------------------------------------------
D|------------67676---------------67676--------------67676------------
A|9---7---6---45454-7--9---7---6--45454-7---9--7---6-45454-7--9-------
E|7---5---4---------5--7---5---4--------5---7--5---4-------5--7-------


That's it. I found this Version on kazaa the other day. Hope you like, And Enjoy.

Peace
comments
We did not receive enough feedback on this tab! Please rate:
print report bad tab
1 2 3 4 5
1 comment total.
0 reply
speedmetal777 wrote on August 24 2006, 06:26 pm

too complicated i should seriously tab this out the right way

I want to post or [tab]
guest
You may want to rate the tab now too:
select rating
Please do not post tabs as comments. Select "correction" instead!