Oops, an error
Loading. Please wait.
We have an official Iron Man tab made by UG professional guitarists. Check out the tab »
×
50,934 views 21 this week
4 commentsread comments
1 2 3 4 5
x 35
add to favorites
guitar tuner
Autoscroll
slow
fast
+/-
esc
set tempo
stop
Author
Difficulty
File Format
Filesize
Instruments
intermediate
.gp5
60 Kb
lead_guitars, basses, percussions, vocals
"Iron Man"
demo version
Play now

or get full version for Free

×
Get full version now!
Learn and play this song
in Tab Pro
Try for free

or get $10 off Welcome Bonus

Get welcome bonus
Get access to Tab Pro version of “Iron Man”!
Tab Pro is a premium guitar tab service, available on PC, Mac, iOS and Android
TRY FOR FREE
Your download will start in 7 seconds
×
Like this song? We have more! Follow us on Facebook for daily tips, lessons and other guitar-related content.
To download “Iron Man” Guitar Pro tab click button below
Please note that you must have Guitar Pro software installed on your
computer in order to view this file.
Suggest correction
comments
report bad tab
4 comments total. Showing first comments.
0 reply
iommi600 4,801 Aug 07, 2010 05:58 PM

good tab, but I think the "interlude 1" part is slightly wrong... I play this:

|-----------------------------------|
|-----------------------------------|
|-----------------------------------|
|-------7---------------------------|
|--9-9--5--9-8-7-7-7--0h6--7-7/8-9--|
|--7-7-----7-6-5-5-5--0h4--5-5/6-7--|

not a big deal, really... but sounds better in my opinion
still, great tab, I used it only for the solo, sounds very good :D

-1 reply
Outside Octaves 381 Oct 09, 2012 08:54 PM

There are a good few set of inaccuracies in this piece... But for the most part, there seems to be some minor fret placement differences from the tones produced in the album's track and what he's got going on in this track.

I for one play the main riff:

----------------------------------------------------|
----------------------------------------------------|
----------------------------------------------------|
--------------7-----------7-----9-----9-------------|
--9-----------5-----------5-----7-----7-------------|
--7-------------------------------------------------|

----------------------------------------------------|
----------------------------------------------------|
--7s-6--7s-6--7s-6----------------------------------|
--5s-4--5s-4--5s-4--7-----7-----9-----9-------------|
--------------------5-----5-----7-----7-------------|
----------------------------------------------------|


Where S = Slide

And I play the 2nd interlude:

|-------|-------|
|-------|-------|
|-------|-------|
|--9----|--7----|
|--7----|--5----|
|-------|-------|
----------------------------------------------------|
----------------------------------------------------|
----------------------------------------------------|
--------------------------------------7--8--9-------|
--9-----9-----------7-----7--8--9-------------------|
--7-----7-----7--10---------------------------------|


There are other things that seem to need tweaking to my ears. So I'm going to go off and work on the gpx version of this and see what I can come up with. It'll be a version that uses Jazz1992's version here as a base to stand on. As this is good for the most part, just needs some TLC :).

0 reply
jthm_guitarist 163 Mar 17, 2015 06:55 PM, edited on March 22 2015, 04:08 pm

Lack of accuracy. drums aren't right and finger positions are wrong

guest
You may want to rate the tab now too:
select rating