Oops, an error
Loading. Please wait.

Jack The Stripper Fairies Wear Boots Tab

12,931 views 42 this week
1 commentread comment
1 2 3 4 5
x 15
add to favorites
launch autoscroll
font size
0
reset
how to read this tab
guitar tuner
Autoscroll
slow
fast
+/-
esc
set tempo
stop
Help us to improve Ultimate-Guitar.com Take our survey!
×
Author
Difficulty
intermediate
Jack The Stripper
Black Sabbath

Slide in  /
Slide out \                              
Palm Mute *
Bend      b
Release   r
Hammer On h
Pull off  p
Vibrato   ~


  With Echo                   3x
e|------------------------------|----------------------------|
b|------------------------------|----------------------------|
g|--------3----------3----------|--------4----------3----3---|
d|------3---5--5---3---5--5-3h5-|------3---5--5---3---5----5-|
a|----5----------5--------------|----5----------7------------|
E|-3----------------------------|-3--------------------------|
   *  * * * *  * * * * *  * * *   *  * * * *  * * * * *  * *
  
  Without Echo
e|----------------------------|----------------------|
b|---1-1p0---0----------------|-1-1p0--0-------------|
g|-2-------2---2p0-0h2-0h2~~~-|------2---2p0-0h2-0h2-|
d|----------------------------|----------------------|
a|----------------------------|----------------------|
E|----------------------------|----------------------|

e|----------------------------|-----------------------------|
b|-------1p0---0--------------|-1p0---1p0---1p0---1p0-0-----|
g|-----0-----2---2p0-0h2-0h2--|-----2-----2-----2-------2/4-|
d|-0h2------------------------|-----------------------------|
a|----------------------------|-----------------------------|
E|----------------------------|-----------------------------|

e|-7-10/15\7--7-5--5/7-|-7-----10-----12-----7-----5-7-|
b|-x--x-------x-x--x---|-----------------------------x-|
g|-4--7/12\4--4-2--2/4-|---4/7----7/9----9\4---4\2---4-|
d|---------------------|-------------------------------|
a|---------------------|-------------------------------|
E|---------------------|-------------------------------|

e|-7-10/15\7--7-5--5/7-|-7-10-12--12/15-12\10---|
b|-x--x-------x-x--x---|-x--x--x---x-----x------|
g|-4--7/12\4--4-2--2/4-|-4--7--9---9/12--9\-7---|
d|---------------------|------------------------|
a|---------------------|------------------------|
E|---------------------|----------------------0-|

e|-----------------|----------------------------|
b|-----------------|----------------------------|
g|-9--7\-----------|-9--7\----------------------|
d|-9--7\---9--7\---|-9--7\---9--7\-----9-10-11--|
a|-7--5\---9--7\---|-7--5\---9--7\-----9--8--9--|
E|---------7--5\---|---------7--5\-----7--8--9--|

  Solo
e|----------------9----------------12b14-12~~~--12-9------9--------|
b|--------------9---12-12~~~--12-9-------------------9-12---12-9-9-|
g|------9-11b13----------------------------------------------------|
d|-9h11------------------------------------------------------------|
a|-----------------------------------------------------------------|
E|-----------------------------------------------------------------|

e|---------9-------------------------9--------|
b|-------9---12--------------------9---9-12-9-|
g|-11b13--------11b13-11~~~--11b13------------|
d|--------------------------------------------|
a|--------------------------------------------|
E|--------------------------------------------|

e|------------------------------9------------------|
b|----------------------------9---12-9-------------|
g|-11b13r11p9-11p9----9-11b13----------11b13-9~~~--|
d|-----------------11------------------------------|
a|-------------------------------------------------|
E|-------------------------------------------------|

e|-----------------|---------------------|
b|-----------------|---------------------|
g|-9--7\-----------|-9--7\---------------|
d|-9--7\---9--7\---|-9--7\---9--7\-------|
a|-7--5\---9--7\---|-7--5\---9--7\-------|
E|---------7--5\---|---------7--5\-------|

Fairies Wear Boots

e|---------3-------------3-------------3-------------3--|
b|---------3-------------3-------------3-------------3--|
g|---------3-------------3-------------3-------------3--|
d|---------3-------------3-------------3-------------3--|
a|-5--8--5----3-5-5-8--5----3-5-5-8--5----3-5-5-8--5----|
E|-3--6--3----1-3-3-6--3----1-3-3-6--3----1-3-3-6--3----|

e|------------3----|
b|------------3----|
g|------------3----|
d|------------3----|
a|-3-5-5-8--5------|
E|-1-3-3-6--3----3-|

                                2x
e|--------------------------------|
b|--------------------------------|
g|--------------------------------|
d|-----------3---------------3----|
a|-5-5-8---5-3-----5-5-8---5-3----|
E|-3-3-6-0-3-3--3--3-3-6-0-3-3--3-|
   * * * * * *  *  * * * * * *  *

Repeat Previous Riff 8 Times Over Verse

                          4x
e|---------3-------------3--|
b|---------3-------------3--|
g|---------3-------------3--|
d|---------3-------------3--|
a|-5--8--5----3-5-5-8--5----|
E|-3--6--3----1-3-3-6--3----|

Reapeat Previous Riff 8 Times Over Chorus

                           2x
e|---------------------------|
b|---------------------------|
g|---------------------------|
d|-3h5--3h5~~~-----3---------|
a|-------------3h5---5-------|
E|---------------------3b5r3-|
  
  Solo
e|----------------------------------------------------------------|
b|-3---6----8-----/15---3---6----8-----/15---3---6----8-----10----|
g|-5b7-8b10-10b12-----5-5b7-8b10-10b12-----5-5b7-8b10-10b12-12b14-|
d|----------------------------------------------------------------|
a|----------------------------------------------------------------|
E|----------------------------------------------------------------|

e|----------15----------------------18b20-18~~~-|
b|-------15----18b20-18b20-18~~~-15-------------|
g|-17b19----------------------------------------|
d|----------------------------------------------|
a|----------------------------------------------|
E|----------------------------------------------|

e|-15-18p15----18p15----------------------15-------------------------15----------------|
b|----------18-------18-18p15----------15----18p15----------------15----18p15----------|
g|----------------------------17-17b19-------------17-15~~~-17b19-------------17-15~~~-|
d|-------------------------------------------------------------------------------------|
a|-------------------------------------------------------------------------------------|
E|-------------------------------------------------------------------------------------|

e|-----------------------------------------------------|
b|----3----------------6-------------6-----------6-----|
g|----3--------3-5/7-7---5-5-3-5/7-7---5-5-3-5/7---5-5-|
d|-/5----5p3-5-----------------------------------------|
a|-----------------------------------------------------|
E|-----------------------------------------------------|

e|-----------------3---------------------------3---------------------|
b|-3-------------3---6p3---------------------3---6p3-----------------|
g|-3-------3-5b7---------5-3h4p3h4p3h4p3-5b7---------5-3h4p3h4p3h4p3-|
d|---5p3-5-----------------------------------------------------------|
a|-------------------------------------------------------------------|
E|-------------------------------------------------------------------|

e|---------------------------------------------|
b|-------6-------------------------6-----------|
g|-5/7-7---5-5-3h4p3h4p3h4p3-5/7-7---5-3-5p3---|
d|-------------------------------------------5-|
a|---------------------------------------------|
E|---------------------------------------------|

                           2x
e|---------------------------|
b|---------------------------|
g|---------------------------|
d|-3h5--3h5~~~-----3---------|
a|-------------3h5---5-------|
E|---------------------3b5r3-|

                         4x
e|-------------------------|
b|-------------------------|
g|-------------------------|
d|-------------------------|
a|-------------------------|
E|-3-3-3-3-3-3-3-3-3-3-3-3-|
   * * * * * * * * * * * * 

e|----------------------------|----------------------|
b|---1-1p0---0----------------|-1-1p0--0-------------|
g|-2-------2---2p0-0h2-0h2~~~-|------2---2p0-0h2-0h2-|
d|----------------------------|----------------------|
a|----------------------------|----------------------|
E|----------------------------|----------------------|

e|----------------------------|-----------------------------|
b|-------1p0---0--------------|-1p0---1p0---1p0---1p0-0-----|
g|-----0-----2---2p0-0h2-0h2--|-----2-----2-----2-------2/4-|
d|-0h2------------------------|-----------------------------|
a|----------------------------|-----------------------------|
E|----------------------------|-----------------------------|

e|-7-10/15\7--7-5--5/7-|-7-----10-----12-----7-----5-7-|
b|-x--x-------x-x--x---|-----------------------------x-|
g|-4--7/12\4--4-2--2/4-|---4/7----7/9----9\4---4\2---4-|
d|---------------------|-------------------------------|
a|---------------------|-------------------------------|
E|---------------------|-------------------------------|

e|-7-10/15\7--7-5--5/7-|-7-10-12--12/15-12\10---|
b|-x--x-------x-x--x---|-x--x--x---x-----x------|
g|-4--7/12\4--4-2--2/4-|-4--7--9---9/12--9\-7---|
d|---------------------|------------------------|
a|---------------------|------------------------|
E|---------------------|----------------------0-|

e|-----------------|-------------------|
b|-----------------|-------------------|
g|-9--7\-----------|-9--7\-------------|
d|-9--7\---9--7\---|-9--7\---9--7\-----|
a|-7--5\---9--7\---|-7--5\---9--7\-----|
E|---------7--5\---|---------7--5\-----|

e|---------3-------------3-------------3-------------3--|
b|---------3-------------3-------------3-------------3--|
g|---------3-------------3-------------3-------------3--|
d|---------3-------------3-------------3-------------3--|
a|-5--8--5----3-5-5-8--5----3-5-5-8--5----3-5-5-8--5----|
E|-3--6--3----1-3-3-6--3----1-3-3-6--3----1-3-3-6--3----|

                                2x
e|--------------------------------|
b|--------------------------------|
g|--------------------------------|
d|-----------3---------------3----|
a|-5-5-8---5-3-----5-5-8---5-3----|
E|-3-3-6-0-3-3--3--3-3-6-0-3-3--3-|
   * * * * * *  *  * * * * * *  *
Repeat Previous Riff 8 Times Over Chorus

e|---------3-------------3-------------3-------------3--|
b|---------3-------------3-------------3-------------3--|
g|---------3-------------3-------------3-------------3--|
d|---------3-------------3-------------3-------------3--|
a|-5--8--5----3-5-5-8--5----3-5-5-8--5----3-5-5-8--5----|
E|-3--6--3----1-3-3-6--3----1-3-3-6--3----1-3-3-6--3----|

Repeat Previous Riff 4 times Over Verse

e|---------------------------------------------------|
b|---------------------------------------------------|
g|-3-------------------------------------------------|
d|---5-3h5~~~---------------3h5-3h5~~~---------------|
a|------------3h5-3h5------------------3h5-3h5-------|
E|--------------------3b5r3--------------------3b5r3-|

e|-5-6---5-----5-6---5-----|
b|-----8---6-8-----8---6-8-|
g|-------------------------|
d|-------------------------|
a|-------------------------|
E|-------------------------|

Repeat Previous Riff Until Fade Out
Suggest correction
comments
print report bad tab
1 comment total. show 1 bad comment
guest
You may want to rate the tab now too:
select rating
Wanna post a correction for this tab? Suggest correction