Oops, an error
Loading. Please wait.

Johnny Blade Tab

version 1
version 1

Whole song

Interactive

4,724 views 9 this week
2 commentsread comments
1 2 3 4 5
worth learning
x 5
add to favorites
launch autoscroll
font size
0
reset
how to read this tab
guitar tuner
Autoscroll
slow
fast
+/-
esc
set tempo
stop
Help us to improve Ultimate-Guitar.com Take our survey!
×
          Johnny Blade
          Black Sabbath - Never Say Die (1978)

          4|------3--------------3--------------3---------------------
          5|----------2p1------------2p1------------2p1---------------
          6|-1--1---1-----3-1--1---1-----3-1--1---1-----3-1-----------


          3|-3--1--1-/3----------------3--1--1-/3---------------------
          4|-3--1--1-/3----------------3--1--1-/3---------------------
          5|--------------------2p1-----------------------------------
          6|-------------1--1-1-----3---------------------------------


          4|------5--------------5--------------5---------------------
          5|----------4p3------------4p3------------4p3---------------
          6|-3--3---3-----5-3--3---3-----5-3--3---3-----5-3-----------


          3|-5--3--3-/5----------------5--3--3-/5---------------------
          4|-5--3--3-/5----------------5--3--3-/5---------------------
          5|--------------------4p3-----------------------------------
          6|-------------3--3-3-----5---------------------------------

          johnny blade..
          4|-7---------7---10--12------7--------7---10--12------------
          5|-7---------7----8--10------7--------7----8--10------------
          6|-5---------5---------------5--------5---------------------


          4|-777766664444------777766664444---------------------------
          5|-5555444422227777--5555444422222222-----------------------
          6|-------------5555--------------0000-----------------------


          5|---------------------3p2-----5-5-5-5-3-5---5-5h6-5p3------
          6|-3/5-5-5-3-5---5-3-5-----5p3-------------------------5p3--

          he's the one...
          4|-7------5--------7------7---------------------------------
          5|-7------5--------5------7---------------------------------
          6|-5------3---------------5---------------------------------


          4|---------------------7-10--7-------------77777777---7-10--7--
          5|-55555555-44444444---7-10--7----55555555-55555555---7-10--7--
          6|-33333333-22222222---5--8--5----33333333------------5--8--5--

          Solo:
          2|---------------8^---9^--8-5-------------------------------
          3|--7^^^p5--------------------7-----------------------------
          4|---------7--------------------7------7-5------------------
          5|-----------------------------------------7-7\5-3-5^-5-----


          3|------------------------------------------------5-4-5-7---
          4|----7-5-------------------------------------5-7-----------
          5|---------7-5---3-5-5^-3-5^-3----3-2-3-3/5-7---------------
          6|-5----------------------------5---------------------------
          1|--------------------------------------------5-------------
          2|-------------------------------8^---8----8^----8-5-5------
          3|-5-7^-5-7^-5-7^-5------------------------------------7-5--
          4|------------------7~~~------------------------------------


          1|--------------------------------------8-------------------
          3|-7^-7^p5-7^-7^p5-7^-7^p5-7^-7^p5--7^----^7----------------


          2|-5--5--5----8---8---8---10--10--10---13---17--------------
          3|-7^-7^-7^--10^-10^-10^--12^-12^-12^--15^--19^-------------


          1|----17h20p17----17h20p17-|----20p17----20p17----20p17------
          2|-17----------17----------|-17-------17-------17------------


          1|-----5--\----5--\-----------8------------------8------------
          2|-----8^-\----8^-\-----8/10-----------------------5--5--5----
          3|------------------------------7\5-5^^----7-7^----7^-7^-7^---
          4|-------------------------------------7-7--------------------


          1|--------8-10-10^---------------15^---------8-10^^8-----8----
          2|--8/10-------------------13-15-------8/10-----------10------
          3|-------------------12/14------------------------------------


          1|------5----------------------------------------------------
          2|---------8-------------------------------------------------
          3|-7^^-------7^^p5---------------------5---------------------
          4|-----------------7--------------7--7---7-------------------
          5|---------------------7-7-7/9--7----------------------------


          2|--------8/10-8----------------------5-/10\--8/10\--8/10\--
          3|----------------7-5-7^-7^p5-----5-7-----------------------
          4|-5/7-7----------------------5-7---------------------------


          1|----8-----------------------------------------------------
          3|-7^----7^p5----5--7p5-7p5-7p5-7p5-----7^-7^~~~------------
          4|------------7---7-----------------7-----------------------


          2|----------------8^--8-5-----------------------------------
          3|-7^-7-5-7---------------7-5-------------------------------
          4|----------------------------5-7\--------------------------
Suggest correction
comments
print report bad tab
2 comments total.
0 reply
ozzy4pope 10 wrote on June 5 2005, 12:00 am

Well done on
tabbing a GREAT song - not perfect, but better than i could do! ;)

0 reply
McFretShredder 10 wrote on March 18 2012, 02:55 am

this is very poorly written.. especially for tabs.. and i have to learn this song, either by ear or by this..man do i have my work cut out for me! -.-

guest
You may want to rate the tab now too:
select rating
Please do not post tabs as comments. Select "correction" instead!