Oops, an error
Loading. Please wait.

Juniors Eyes Tab

version 2
version 2

Whole song

Interactive

650 views 1 this week
no commentswrite comment
1 2 3 4 5
3 more votes to show rating
add to favorites
launch autoscroll
font size
0
reset
how to read this tab
guitar tuner
Autoscroll
slow
fast
+/-
esc
set tempo
stop
Help us to improve Ultimate-Guitar.com Take our survey!
×
Author
Difficulty
intermediate
"Junior's Eyes" - Black Sabbath "Never Say Die"

Tabbed by: Marcus Lycus
e-mail maclark88@juno.com

Part 1

 Riff 1                   Riff 2                       
|----------------7--8-9-|----------------------7-9p7--|
|----------5------9-----|----------7-7-5----/9------9-|
|--7\--5-7--------------|--7\--5-7--------------------|
|-----7-----------------|-----7-----------------------|

 Riff 3                    Riff 4
|-------------------7-7---|-----------------/9-7-------|
|----------5----7-9-----9-|----------7-7-5-------9p7-9-|
|--7\--5-7----------------|--7\--5-7-------------------|
|-----7-------------------|-----7----------------------|


 Riff 1                   Riff 5                      
|----------------7--8-9-|-----------------------------|
|----------5------9-----|----------7-7-5--------------|
|--7\--5-7--------------|--7\--5-7----------7p5---5---|
|-----7-----------------|-----7-----------------7---7-|


  Riff 1                   Riff 2
|----------------7--8-9--|----------------------7-9p7--|
|----------5------9------|----------7-7-5----/9------9-|
|--7\--5-7---------------|--7\--5-7--------------------|
|-----7------------------|-----7-----------------------|

Part 2

Start guitar (Geezer jumps all around on these combinations, pick what works for you)

Riff 1, Riff 5, Riff 1, Riff 4

Start verses

Riff 1, Riff 5, Riff 3, Riff 2
Riff 1, Riff 5, Riff 1, 

  Riff 6 (end of vocals)
|---------------------------------|
|----------7====\9-/7-5-7---7-7-7-|
|--7\--5-7------------------------|
|-----7---------------------------|

Part 3

Chorus  (more Geezer noodling, pick what works for you)

  Riff 7                             Riff 8
|-----------------------7-9p7-----|-------------------------------------|
|--------------------/9------9----|--10-10-10----7--10-10---------5-7-5-|
|--7-7-7---5--7--7----------------|------------10-------------5-7-------|
|--------7------------------------|-------------------------------------|

Riff 7, Riff 8, Riff 7, Riff 8, Riff 7, 

  Riff 9 (end of chorus)
|----------------------7-7--|
|--10-10-10----10--9-9------|
|-----------10--------------|
|---------------------------|

Repeat part 2

Repeat part 3

Part 4

  Riff 10                    Riff 11
|--------------7----------|-------------------/9--7-|
|----------------7/9--7-5-|-------------/9--7-------|
|-7-7---7-7-5-------------|-7-7---7-7-5-------------|
|-----7-------------------|-----7-------------------|

Riff 10, Riff 11

  Riff 12 (geezer noodling again)
|------------------------------------------------------|
|--10-10-10---10-9-999--10-10-10-10-12-12-12-12-12-12--|
|------------------------------------------------------|
|------------------------------------------------------|

  Riff 13 (geezer noodling again)
|------------------------7--9p7---|
|--7-7---7/9-9-9-99-99-9--9----9--|
|------7--------------------------|
|---------------------------------|

Riff 13, Riff 13, Riff 13, Riff 13,

  Riff 14
|--------------------------------------|
|---10-10-10-10-12--------7-9-7-9/12---|
|------------------5-5-/9--------------|
|--------------------------------------|

Riff 14, Riff 14, 

  Riff 15
|--------------------------------------|
|------9--10-10-10p7-----7-10-10p7-----|
|---7----------------10------------10--|
|--------------------------------------|

Riff 15, Riff 15

Back to similar part 1

Riff 1, Riff 2, Riff 1, Riff 4

Repeat part 2 Verses

Repeat part 3 Chorus

Repeat part 4

End
|----|----|----|--5--7---9--------|
|----|----|----|------------------|
|--7-|--5-|--7-|------------------|
|----|----|----|------------------|
Suggest correction
Give kudos to tab author, rate the tab!
1 2 3 4 5
comments
print report bad tab
guest
You may want to rate the tab now too:
select rating
Wanna post a correction for this tab? Suggest correction